Song name
# A B C D E F G H I J K L M N O P Q R S T U V W X Y Z

Donots - This Is Not A Drill tab

ITS NOT THE WHOLE SONG BUT ITS A GOOD STARTING POINT.






[-----------------------------------------------------------------]
[-----------------------------------------------------------------]
[-----------------------------------------------------------------]   INTRO
[-----------------------------------------------------------------]
[---------2-2-2-----------2-2-2-----------2-2-2-----------2-2-2---]
[---0-0-3-------3-0-0-0-3-------3-5-5-5-3-------3-5-5-5-3-------3-]





[-------------------------------------------------------------------|
[-------------------------------------------------------------------|
[---------4-4-4-----------4-4-4-----------4-4-4-----------4-4-4---] |
[---2-2-5-2-2-2-5-2-2-2-5-2-2-2-5-7-7-7-5-2-2-2-5-7-7-7-5-2-2-2-----|
[---0-0-3-------3-0-0-0-3-------3-5-5-5-3-------3-5-5-5-3-------3---|
[-------------------------------------------------------------------|

------------------------------------------------------------------]
------------------------------------------------------------------]
 [---2-2-5-4-4-4-5-2-2-2-5-4-4-4-5-7-7-7-5-4-4-4-5-7-7-7-5-4-4-4--]
------------------------------------------------------------------]
------------------------------------------------------------------]
------------------------------------------------------------------]




|---------------------------------------------|
|---------------------------------------------|
|-5-5-5-5-------------------------------------|
|-5-5-5-5--7-7-7-7-9-9-9-9-10-10-10-10--------|   CHORUS
|-3-3-3-3--7-7-7-7-9-9-9-9-10-10-10-10--------|
|----------5-5-5-5-7-7-7-7-8--8--8--8---------|
Tap to rate this tab
 
# A B C D E F G H I J K L M N O P Q R S T U V W X Y Z