Song name
# A B C D E F G H I J K L M N O P Q R S T U V W X Y Z

Donots - Stop The Clocks tab

Tuning: Half Step Down -> D#,G#,C#,F#,A#,d#


Intro

Strophe: Em* , G, D, C

Übergang: D

Refrain: C, Em, Bm, Am


INTRO

-------     ----------------------------     ----------------------------|
-8-8-8-     -8-8-8--7-7-7--5-5-5--5-5-5-     -5-5-5--5-5-5---------------|
-------     ----------------------------     ---------------5-5-5--5-5-5-|
------- 8x  ---------------------------- 3x  ----------------------------| 1x
-------     ----------------------------     ----------------------------|
-------     ----------------------------     ----------------------------|


STROPHE                    REFRAIN

Em*   G    D    C           C    Em  Bm   Am

-7-  -3-  -2-  -0-         -0-  -0-  -2-  -0-|
-8-  -0-  -3-  -1-         -1-  -0-  -3-  -1-|
-9-  -0-  -2-  -0-         -0-  -0-  -4-  -2-|
-9-  -0-  -0-  -2-         -2-  -2-  -4-  -2-|
-7-  -2-  ---  -3-         -3-  -2-  -2-  -0-|
---  -3-  ---  ---         ---  -0-  ---  ---|


RIFF

-----------7-7---7-------------     --7-8-5-7---5-----|
-8-8-8---8---------7-7---7-8-8-     ----------8---7-8-|
-------------------------------     ------------------|
------------------------------- 5x  ------------------| 3x
-------------------------------     ------------------|
-------------------------------     ------------------|
Tap to rate this tab
# A B C D E F G H I J K L M N O P Q R S T U V W X Y Z