Song name
# A B C D E F G H I J K L M N O P Q R S T U V W X Y Z

Donots - Duck And Cover tab

"Duck and Cover" Tabs by Donots.

/ = up slide
\ = down slide
r = let ring


Intro: 

G|----------------------|10--10--10/13--13--13--13---|
D|--11-11-11-11-11-11---|10--10--10/13--13--13--13---|
A|--11-11-11-11-11-11---|8---8---8-/11--11--11--11---|
E|--9--9--9--9--9--9----|----------------------------|
                                                            x4
G|--8--8--8--8--8--8--|10--10--10/13--13--13--13---|
D|--8--8--8--8--8--8--|10--10--10/13--13--13--13---|
A|--6--6--6--6--6--6--|8---8---8-/11--11--11--11---|           
E|--------------------|----------------------------|




Verse 1:

G|--10----10----10----10--|--6----6------------|
D|--10----10----10----10--|--6----6----6----6--|
A|--8-----8-----8-----8---|--4----4----6----6--|             x3
E|------------------------|------------4----4--|



Fill In:

G|--10----10----10----10--|6-----8-|
D|--10----10----10----10--|6--6--8-|
A|--8-----8-----8-----8---|4--6--6-|                          x1
E|------------------------|---4----|




Chorus 1:


G|----------------------|10--10--10/13--13--13--13---|
D|--11-11-11-11-11-11---|10--10--10/13--13--13--13---|
A|--11-11-11-11-11-11---|8---8---8-/11--11--11--11---|
E|--9--9--9--9--9--9----|----------------------------|
                                                            x4
G|--8--8--8--8--8--8--|10--10--10/13--13--13--13---|
D|--8--8--8--8--8--8--|10--10--10/13--13--13--13---|
A|--6--6--6--6--6--6--|8---8---8-/11--11--11--11---|           
E|--------------------|----------------------------|



Verse 2:

G|--10----10----10----10--|--6----6------------|
D|--10----10----10----10--|--6----6----6----6--|
A|--8-----8-----8-----8---|--4----4----6----6--|             x3
E|------------------------|------------4----4--|



Fill In:

G|--10----10----10----10--|6-----8-|
D|--10----10----10----10--|6--6--8-|
A|--8-----8-----8-----8---|4--6--6-|                          x1
E|------------------------|---4----|



Chorus 2:


G|----------------------|10--10--10/13--13--13--13---|
D|--11-11-11-11-11-11---|10--10--10/13--13--13--13---|
A|--11-11-11-11-11-11---|8---8---8-/11--11--11--11---|
E|--9--9--9--9--9--9----|----------------------------|
                                                            x4
G|--8--8--8--8--8--8--|10--10--10/13--13--13--13---|
D|--8--8--8--8--8--8--|10--10--10/13--13--13--13---|
A|--6--6--6--6--6--6--|8---8---8-/11--11--11--11---|           
E|--------------------|----------------------------|


Bridge 1:

G|-3--3--3--3--3--3/-6--6--6--6/-8/-10--10--10--10--10--10\-8--8--8--8--8|
D|-3--3--3--3--3--3/-6--6--6--6/-8/-10--10--10--10--10--10\-8--8--8--8--8|
A|-1--1--1--1--1--1/-4--4--4--4/-6/-8---8---8---8---8---8-\-8--8--8--8--8| x2 
E|-----------------------------------------------------------------------|



Verse 3: 

Only Bass plays.


Fill In:

G|-6-----8-|
D|-6--6--8-|
A|-4--6--6-|                          x1
E|----4----|



Chorus 3:


G|----------------------|10--10--10/13--13--13--13---|
D|--11-11-11-11-11-11---|10--10--10/13--13--13--13---|
A|--11-11-11-11-11-11---|8---8---8-/11--11--11--11---|
E|--9--9--9--9--9--9----|----------------------------|
                                                            x4
G|--8--8--8--8--8--8--|10--10--10/13--13--13--13---|
D|--8--8--8--8--8--8--|10--10--10/13--13--13--13---|
A|--6--6--6--6--6--6--|8---8---8-/11--11--11--11---|           
E|--------------------|----------------------------|



Bridge 2:

G|-3--3--3--3--3--3/-6--6--6--6/-8/-10--10--10--10--10--10\-8--8--8--8--8|
D|-3--3--3--3--3--3/-6--6--6--6/-8/-10--10--10--10--10--10\-8--8--8--8--8|
A|-1--1--1--1--1--1/-4--4--4--4/-6/-8---8---8---8---8---8-\-8--8--8--8--8| x4 
E|-----------------------------------------------------------------------|


Outro:

Bass plays. Let the last Chord ring.

G|-10~---|
D|-10~---|
A|-8-~---|
E|-------|




It's my first Tab! I hope you like it and I could help you! 
Tap to rate this tab
# A B C D E F G H I J K L M N O P Q R S T U V W X Y Z