Song name
# A B C D E F G H I J K L M N O P Q R S T U V W X Y Z

Donots - Better Days Not Included tab

Another tab by the petemeister/thecoolguy55
Guitar rules, I rule:p
Hail to the donots:p

eb----------------------------------------------------------------------|
Bb----------------------------------------------------------------------|
Gb----------4-444-444-44-7777-4-444-444-44-7777-------------------------| X2
Db----------4-444-444-44-7777-4-444-444-44-7777-------------------------|
Ab----------2-202-202-20-5555-2-202-202-20-5555-------------------------|

eb-------------------------------------------------------------------|
Bb-------------------------------------------------------------------|
Gb----------44444-77777-9999999--10-10-10-10-10-10-------------------|
Db----------44444-77777-9999999--10-10-10-10-10-10-------------------|
Ab----------22222-55555-7777777--8--8--8--8--8--8--------------------|
Tap to rate this tab
 
# A B C D E F G H I J K L M N O P Q R S T U V W X Y Z