Song name
# A B C D E F G H I J K L M N O P Q R S T U V W X Y Z

Donovan Leitch - Colours tab

COLOURS

im sure its not 100 % accurate- but sounds quite good.


Intro:
|-44-22-------------|
|-44-22-------------|
|-44-22-------------|
|-------------------|
|-------------------|
|-------------------|

Verse:
|-------------------|
|-------------------| ( ) not played last time
|--55555-3-(5)------|
|-------------------|
|-------------------|
|-------------------|
The colours that you dont see…

Pre-Chorus (synthesizer):
|-------------------|
|-------------------| tremolo picking
|-------------------|
|-------------------|
|-1-1-1-1-1---------|
|-------------------|
See… see… is 

Chorus:
|------------------------------|
|------------------------------|
|------------------------------|
|----4---4---4-----4444-33---3-|
|--6---6---6---6-5-------------|
|--------------------------0---|
Gold Gold Gold…

|--------------------------------|
|--------------------------------|
|--------------------------------|
|----4---4---4-----4-6-4--33---3-|
|--6---6---6---6-5---------------|
|----------------------------0---|
Gold Gold Gold…

Bridge:
|-------------------|
|-------------------|
|-------10----------|
|--11//----10/------|
|-------------------|
|-------------------|
The colours that you don’t see…

// strum around 16 times
/ strumm around 8 times

Intro
Just Drums
Verse
Pre-Chorus
Chorus
Intro
Just Drums
Verse
Pre-Chorus
Chorus
Bridge 
Intro
Tap to rate this tab
# A B C D E F G H I J K L M N O P Q R S T U V W X Y Z