Song name
# A B C D E F G H I J K L M N O P Q R S T U V W X Y Z

Donovan - Three King Fishers tab

Ok the song features a guitar and a sitar. These tabs are for the guitar parts. Its a 
easy song and its about 95% accurate. I just started tabbing so be easy one me please! 
fun. This is my first tab here on UG!

Donovan - Three King Fishers

Intro
e:|-------------------------------| |---------------------------|
B:|-------------------------------| |---------------------------|
G:|-------------------------------| |---------------------------|
D:|------0-2-4-4-4s7--6-2-4-0-----| |---2h4---2h4--—2h4---2h4---|
A:|-2-4-----------------------4-0-| |-2-----2-----2-----2-------|
E:|-------------------------------| |---------------------------|

Twelve king fisher birds shall you have
e:|-------------------------------| |---------------------------|
B:|-------------------------------| |---------------------------|
G:|-------------------------------| |---------------------------|
D:|------0-2-4-4-4s7--6-2-4-0-----| |---2h4---2h4--—2h4---2h4---|
A:|-2-4-----------------------4-0-| |-2-----2-----2-----2-------|
E:|-------------------------------| |---------------------------|

Dive and swim in the ripples of your laugh
e:|-------------------------------| |---------------------------|
B:|-------------------------------| |---------------------------|
G:|-------------------------------| |---------------------------|
D:|------0-2-4-4-4s7--6-2-4-0-----| |---2h4---2h4--—2h4---2h4---|
A:|-2-4-----------------------4-0-| |-2-----2-----2-----2-------|
E:|-------------------------------| |---------------------------|

 Oh, I dreamed you were a Jewel Sitting on golden crown

     ……on my head, my head, my head.
e:|-------------------------------|
B:|-------------------------------|
G:|-------------------------------|
D:|-----2h4-------2h4-------2h4---|
A:|-0-2-----2-0-2-----2-0-2-------|
E:|-------------------------------|

Look at the tiny oceans in my hand….
e:|-------------------------------| |---------------------------|
B:|-------------------------------| |---------------------------|
G:|-------------------------------| |---------------------------|
D:|------0-2-4-4-4s7--6-2-4-0-----| |---2h4---2h4--—2h4---2h4---|
A:|-2-4-----------------------4-0-| |-2-----2-----2-----2-------|
E:|-------------------------------| |---------------------------|

Waves of liquid colours touch the sand.
e:|-------------------------------| |---------------------------|
B:|-------------------------------| |---------------------------|
G:|-------------------------------| |---------------------------|
D:|------0-2-4-4-4s7--6-2-4-0-----| |---2h4---2h4--—2h4---2h4---|
A:|-2-4-----------------------4-0-| |-2-----2-----2-----2-------|
E:|-------------------------------| |---------------------------|
Oh, I dreamed you were a Jewel Sitting on golden crown

  ……on my head, my head, my head.
e:|-------------------------------|
B:|-------------------------------|
G:|-------------------------------|
D:|-----2h4-------2h4-------2h4---|
A:|-0-2-----2-0-2-----2-0-2-------|
E:|-------------------------------|

e:|-------------------------------|
B:|-------------------------------|
G:|-------------------------------|
D:|------0-2-4-4-4s7--6-2-4-0-----|
A:|-2-4-----------------------4-0-|
E:|-------------------------------|

e:|-------------------------------|
B:|-------------------------------|
G:|-------------------------------|
D:|-----2h4-------2h4-------2h4---|
A:|-0-2-----2-0-2-----2-0-2-------|
E:|-------------------------------|


ETC…...

Instrumental guitar part at the end
e:|-------------------------------| |------------------------------|
B:|-------------------------------| |------------------------------|
G:|-------------------------------| |------------------------------|
D:|------0-2-4-7-6-2-4-2-0--------| |-----0-2-4-7-6-2-4-2-0--------|
A:|-2-4--------------------4-2-0--| |-2-4--------------------4-2-0-|
E:|-------------------------------| |------------------------------|
Tap to rate this tab
# A B C D E F G H I J K L M N O P Q R S T U V W X Y Z