Guitaretab - guitar tabs
Song name
# A B C D E F G H I J K L M N O P Q R S T U V W X Y Z

Donovan - Sunshine Superman tab

----------------------------------------------------------------------------
		      Sunshine Superman - Donovan
----------------------------------------------------------------------------
Tabbed by: Dave S.		
Email: Dlgibson@netscape.com

Tuning: Standard

e|-------------------------------------------------------------------------|
B|-------------------------------------------------------------------------|
G|-------------------------------------------------------------------------|
D|-------------2---------------------2---------------------2---------------|
A|----4-4---2-----4--2-4--2-4-4---2-----4--2-4--2-4-4---2-----4--2-4-------|
E|--------4---------------------4---------------------4--------------------|
 |
e|----------------------------------------------7/9------------------------|
B|-----------------------------------------------------------------9-------|
G|--------------------------------------------------------------10---------|
D|-----------------------------------------------------------11------------|
A|-------------------------------------------------------------------------|
E|-------------------------------------------------------------------------|


e|--------------------------|
B|--------------------------|
G|--------------------------|
D|-------------2------------|
A|--2-4-4---2-----4--2-4--2-|
E|--------4-----------------|
 |
e|--7/9---------------------|
B|---------------------9----|
G|------------------10------|
D|---------------11---------|
A|--------------------------|
E|--------------------------|



Verse 1 

       (Repeat 4x)              (Repeat 2x)            (Repeat 2x)
e|-----------------------|--2-2-x-2-x-2-2-x-2-x--|-----------------------|
B|--2-2-x-2-x-2-2-x-2-x--|--2-2-x-2-x-2-2-x-2-x--|--2-2-x-2-x-2-2-x-2-x--|
G|--4-4-x-4-x-4-4-x-4-x--|--3-3-x-3-x-3-3-x-3-x--|--4-4-x-4-x-4-4-x-4-x--|
D|--3-3-x-3-x-3-3-x-3-x--|--4-4-x-4-x-4-4-x-4-x--|--3-3-x-3-x-3-3-x-3-x--|
A|--4-4-x-4-x-4-4-x-4-x--|--4-4-x-4-x-4-4-x-4-x--|--4-4-x-4-x-4-4-x-4-x--|
E|-----------------------|--2-2-x-2-x-2-2-x-2-x--|-----------------------|
 |
e|--7/9------------------|--7/9------------------|--7/9------------------|
B|-------------------9---|-------------------11--|-------------------9---|
G|----------------10-----|----------------11-----|----------------10-----|
D|-------------11--------|-------------11--------|-------------11--------|
A|-----------------------|-----------------------|-----------------------|
E|-----------------------|-----------------------|-----------------------|


                                                         (Repeat 2x)
e|--4--4--4--4--4--4--4--4--2--2--2--2--2--2--2--2-|----------------------|
B|--4--4--4--4--4--4--4--4--2--2--2--2--2--2--2--2-|-2-2-x-2-x-2-2-x-2-x--|
G|--5--5--5--5--5--5--5--5--3--3--3--3--3--3--3--3-|-4-4-x-4-x-4-4-x-4-x--|
D|--6--6--6--6--6--6--6--6--4--4--4--4--4--4--4--4-|-3-3-x-3-x-3-3-x-3-x--|
A|--6--6--6--6--6--6--6--6--4--4--4--4--4--4--4--4-|-4-4-x-4-x-4-4-x-4-x--|
E|--4--4--4--4--4--4--4--4--2--2--2--2--2--2--2--2-|----------------------|
 |
e|-------------------------------------------------|-7/9------------------|
B|-------------------------------------------------|------------------9---|
G|-------------------------------------------------|---------------10-----|
D|-------------------------------------------------|------------11--------|
A|-------------------------------------------------|----------------------|
E|-------------------------------------------------|----------------------|



Verse 2
                   (Repeat 2x)                          
e|--------------------------------------------|
B|--2-2-x-2-x-2-2-x-2-x--2-2-x-2-x-2-2-x-2-x--|
G|--4-4-x-4-x-4-4-x-4-x--4-4-x-4-x-4-4-x-4-x--|
D|--3-3-x-3-x-3-3-x-3-x--3-3-x-3-x-3-3-x-3-x--|
A|--4-4-x-4-x-4-4-x-4-x--4-4-x-4-x-4-4-x-4-x--|
E|--------------------------------------------|
 |
e|--9-9-9-9-8-7-----------9-9-9-8--7----------|
B|-------------------9------------------------|
G|----------------10--------------------------|
D|--------------11----------------------------|
A|--------------------------------------------|
E|--------------------------------------------|


e|--2-2-x-2-x-2-2-x-2-x--2-2-x-2-x-2-2-x-2-x--|
B|--2-2-x-2-x-2-2-x-2-x--2-2-x-2-x-2-2-x-2-x--|
G|--3-3-x-3-x-3-3-x-3-x--3-3-x-3-x-3-3-x-3-x--|
D|--4-4-x-4-x-4-4-x-4-x--4-4-x-4-x-4-4-x-4-x--|
A|--4-4-x-4-x-4-4-x-4-x--4-4-x-4-x-4-4-x-4-x--|
E|--2-2-x-2-x-2-2-x-2-x--2-2-x-2-x-2-2-x-2-x--|
 |
e|--9-9-9-9-7-6----------9-9-9-7--6-----------|
B|------------------11------------------------|
G|----------------11--------------------------|
D|--------------11----------------------------|
A|--------------------------------------------|
E|--------------------------------------------|


e|--------------------------------------------|
B|--2-2-x-2-x-2-2-x-2-x--2-2-x-2-x-2-2-x-2-x--|
G|--4-4-x-4-x-4-4-x-4-x--4-4-x-4-x-4-4-x-4-x--|
D|--3-3-x-3-x-3-3-x-3-x--3-3-x-3-x-3-3-x-3-x--|
A|--4-4-x-4-x-4-4-x-4-x--4-4-x-4-x-4-4-x-4-x--|
E|--------------------------------------------|
 |
e|--9-9-9-9-8-7-----------9-9-9-8--7----------|
B|-------------------9------------------------|
G|----------------10--------------------------|
D|--------------11----------------------------|
A|--------------------------------------------|
E|--------------------------------------------|

[ Tab from: http://www.guitaretab.com/d/donovan/5502.html ]
e|--4--4--4--4--4--4--4--4--2--2--2--2--2--2--2--2-----------------------|
B|--4--4--4--4--4--4--4--4--2--2--2--2--2--2--2--2--2-2-x-2-x-2-2-x-2-x--|
G|--5--5--5--5--5--5--5--5--3--3--3--3--3--3--3--3--4-4-x-4-x-4-4-x-4-x--|
D|--6--6--6--6--6--6--6--6--4--4--4--4--4--4--4--4--3-3-x-3-x-3-3-x-3-x--|
A|--6--6--6--6--6--6--6--6--4--4--4--4--4--4--4--4--4-4-x-4-x-4-4-x-4-x--|
E|--4--4--4--4--4--4--4--4--2--2--2--2--2--2--2--2-----------------------|
 |
e|--------------------------------------------------9-9-9-9-8-7----------|
B|-------------------------------------------------------------------9---|
G|----------------------------------------------------------------10-----|
D|--------------------------------------------------------------11-------|
A|-----------------------------------------------------------------------|
E|-----------------------------------------------------------------------|


e|----------------------|
B|--2-2-x-2-x-2-2-x-2-x-|
G|--4-4-x-4-x-4-4-x-4-x-|
D|--3-3-x-3-x-3-3-x-3-x-|
A|--4-4-x-4-x-4-4-x-4-x-|
E|----------------------|
 |
e|--9-9-9-8--7----------|
B|----------------------|
G|----------------------|
D|----------------------|
A|----------------------|
E|----------------------|




Guitar solo
    C#7
e|--------------------------------------------------9~9~9~9~9~9~9~9~9------|
B|--------9-9-9-9-7/9-------7--9-9-9-9-7/9-------7-------------------------|
G|-----9------------------9--------------------9---------------------------|
D|--11-----------------11-------------------11-----------------------------|
A|-------------------------------------------------------------------------|
E|-------------------------------------------------------------------------|

    G#              F#              C#7    
e|--4~~~~~~---------2~~~~~~------------------------------------------------|
B|--4~~~~~~---------2~~~~~~--------------7/9-9-7/9---------7/9-------7-----|
G|--5~~~~~~---------3~~~~~~------------9-----------------9---------9-------|
D|--6~~~~~~---------4~~~~~~---------11----------------11--------11---------|
A|-------------------------------------------------------------------------|
E|-------------------------------------------------------------------------|


e|-----------------------9--9-9~~------------------------------------------|
B|-------7/9-------7-8-9---------------------------------------------------|
G|-----9---------9---------------------------------------------------------|
D|--11--------11-----------------------------------------------------------|
A|-------------------------------------------------------------------------|
E|-------------------------------------------------------------------------|



Verse 3
                (Repeat 2x)                          
e|--------------------------------------------|
B|--2-2-x-2-x-2-2-x-2-x--2-2-x-2-x-2-2-x-2-x--|
G|--4-4-x-4-x-4-4-x-4-x--4-4-x-4-x-4-4-x-4-x--|
D|--3-3-x-3-x-3-3-x-3-x--3-3-x-3-x-3-3-x-3-x--|
A|--4-4-x-4-x-4-4-x-4-x--4-4-x-4-x-4-4-x-4-x--|
E|--------------------------------------------|
 |
e|--9-9-9-9-8-7-----------9-9-9-8--7----------|
B|-------------------9------------------------|
G|----------------10--------------------------|
D|--------------11----------------------------|
A|--------------------------------------------|
E|--------------------------------------------|


e|--2-2-x-2-x-2-2-x-2-x--2-2-x-2-x-2-2-x-2-x--|
B|--2-2-x-2-x-2-2-x-2-x--2-2-x-2-x-2-2-x-2-x--|
G|--3-3-x-3-x-3-3-x-3-x--3-3-x-3-x-3-3-x-3-x--|
D|--4-4-x-4-x-4-4-x-4-x--4-4-x-4-x-4-4-x-4-x--|
A|--4-4-x-4-x-4-4-x-4-x--4-4-x-4-x-4-4-x-4-x--|
E|--2-2-x-2-x-2-2-x-2-x--2-2-x-2-x-2-2-x-2-x--|
 |
e|--9-9-9-9-7-6----------9-9-9-7--6-----------|
B|------------------11------------------------|
G|----------------11--------------------------|
D|--------------11----------------------------|
A|--------------------------------------------|
E|--------------------------------------------|


e|--------------------------------------------|
B|--2-2-x-2-x-2-2-x-2-x--2-2-x-2-x-2-2-x-2-x--|
G|--4-4-x-4-x-4-4-x-4-x--4-4-x-4-x-4-4-x-4-x--|
D|--3-3-x-3-x-3-3-x-3-x--3-3-x-3-x-3-3-x-3-x--|
A|--4-4-x-4-x-4-4-x-4-x--4-4-x-4-x-4-4-x-4-x--|
E|--------------------------------------------|
 |
e|--9-9-9-9-8-7-----------9-9-9-8--7----------|
B|-------------------9------------------------|
G|----------------10--------------------------|
D|--------------11----------------------------|
A|--------------------------------------------|
E|--------------------------------------------|


e|--4--4--4--4--4--4--4--4--2--2--2--2--2--2--2--2-----------------------|
B|--4--4--4--4--4--4--4--4--2--2--2--2--2--2--2--2--2-2-x-2-x-2-2-x-2-x--|
G|--5--5--5--5--5--5--5--5--3--3--3--3--3--3--3--3--4-4-x-4-x-4-4-x-4-x--|
D|--6--6--6--6--6--6--6--6--4--4--4--4--4--4--4--4--3-3-x-3-x-3-3-x-3-x--|
A|--6--6--6--6--6--6--6--6--4--4--4--4--4--4--4--4--4-4-x-4-x-4-4-x-4-x--|
E|--4--4--4--4--4--4--4--4--2--2--2--2--2--2--2--2-----------------------|
 |
e|--------------------------------------------------9-9-9-9-8-7----------|
B|-------------------------------------------------------------------9---|
G|----------------------------------------------------------------10-----|
D|--------------------------------------------------------------11-------|
A|-----------------------------------------------------------------------|
E|-----------------------------------------------------------------------|


e|----------------------|
B|--2-2-x-2-x-2-2-x-2-x-|
G|--4-4-x-4-x-4-4-x-4-x-|
D|--3-3-x-3-x-3-3-x-3-x-|
A|--4-4-x-4-x-4-4-x-4-x-|
E|----------------------|
 |
e|--9-9-9-8--7----------|
B|----------------------|
G|----------------------|
D|----------------------|
A|----------------------|
E|----------------------|


e|--4--4--4--4--4--4--4--4--2--2--2--2--2--2--2--2--|
B|--4--4--4--4--4--4--4--4--2--2--2--2--2--2--2--2--|
G|--5--5--5--5--5--5--5--5--3--3--3--3--3--3--3--3--|
D|--6--6--6--6--6--6--6--6--4--4--4--4--4--4--4--4--|
A|--6--6--6--6--6--6--6--6--4--4--4--4--4--4--4--4--|
E|--4--4--4--4--4--4--4--4--2--2--2--2--2--2--2--2--|



Cords
   C#7    F#    G#
e|-----|--2--|--4--|
B|--2--|--2--|--4--|
G|--4--|--3--|--5--|
D|--3--|--4--|--6--|
A|--4--|--4--|--6--|
E|-----|--2--|--4--|



| /  slide up
| \  slide down
| h  hammer-on
| p  pull-off
| ~  vibrato
| +  harmonic
| x  Mute note
===========================================================================
Related for Sunshine Superman tab
×
Best way to learn
"Sunshine Superman"