Song name
# A B C D E F G H I J K L M N O P Q R S T U V W X Y Z

Donovan - Happiness Runs tab

----------------------------------------------------------------------------
			Happiness Runs - Donovan
----------------------------------------------------------------------------
Tabbed by: IaminCommand
Email:niko.yannilos@hotmail.com

Tuning: Standard E A D G B e

e|---------------------------------------------------------------------------|
B|------2---2-----2-------2--------2-----------------------------------------|
G|--------3---------1-------1---------1--------------------------------------|
D|----4----------------------------------------------------------------------|
A|--------------4----------------4-------------------------------------------|
E|----------------------4----------------------------------------------------|

| /  slide up
| \  slide down
| h  hammer-on
| p  pull-off
| ~  vibrato
| +  harmonic
| x  Mute note
============================================================================
Since this is my first tab, i picked a song quite easy to play since its a repeating
once you figured out how to play it right (listen to the song for speed, etc.) try playing
while listening to the song. There are three modes to play it sounding good. 1.: Plug 
guitar out of your amp and play it. 2.: Turn your amp on and switch to the cleanest
you have. and 3.: Play it on an acoustic guitar.
This song is about 100% right. and i guess there will be more to follow ;)
Ttys
I.a.i.C.
Tap to rate this tab
# A B C D E F G H I J K L M N O P Q R S T U V W X Y Z