Song name
# A B C D E F G H I J K L M N O P Q R S T U V W X Y Z

Donovan - Mandolin Man And His Secret tab

-----------------------------------------------------------------------------
	        The Mandolin Man and His Secret - Donovan
-----------------------------------------------------------------------------

Tuning: Standard    CAPO 2nd FRET

Intro/Verse
e|----------------------------------------------------------|
B|----------------------------------------------------------|
G|-------------------1---------------------------1----------|
D|-------2-----2-1h2---1-------------2-----2-1h2---1--------|
A|---2-----4---------------4---4-2-----4---------------4--4-|
E|-----0-----0-----------0---0-----0-----0-----------0---0--|

Chorus
e|-------------------------------------------------------|
B|-------------------------------------------------------|
G|-------------------------------------------1-----------|
D|-------------------------------2-----2-1h2---1---------|
A|-----4-----2-----4---------2-----4---------------4---4-|
E|---5---5-4---4-2---2-2-4-5---0-----0-----------0---0---|


| /  slide up
| \  slide down
| h  hammer-on
| p  pull-off
| ~  vibrato
| +  harmonic
| x  Mute note
Tap to rate this tab
# A B C D E F G H I J K L M N O P Q R S T U V W X Y Z