Song name
# A B C D E F G H I J K L M N O P Q R S T U V W X Y Z

Dont Look Down - Start The Show tab

Dont Look Down - Start The Show
By:Andrew Mcshan(Guitarguyx182@aol.com)

e|-------------------------------------------------------------|
B|-------------------------------------------------------------|
G|-6-9-6-9-6--9-6-9--------------------------------------------|
D|-6-9-6-9-6--9-6-9--------------------------------------------|
A|-4-7-4-7-4--7-4-7--------------------------------------------|
E|-------------------------------------------------------------|

e|-------------------------------------------------------------|
B|-------------------------------------------------------------|
G|-16-14-12-14-------------------------------------------------|
D|-------------------------------------------------------------|
A|-14-12-11-12-------------------------------------------------|
E|-------------------------------------------------------------|
Verse
e|-------------------------------------------------------------|
B|-------------------------------------------------------------|
G|-------------------------------------------------------------|
D|-11-7-11-7---------------------------------------------------|
A|-11-7-11-7---------------------------------------------------|
E|-9--5-9--5---------------------------------------------------|

e|-------------------------------------------------------------|
B|-------------------------------------------------------------|
G|----9----9---------------------------------------------------|
D|-11----7-----------------------------------------------------|
A|-11-7--7-7---------------------------------------------------|
E|-9-----5-----------------------------------------------------|

e|-------------------------------------------------------------|
B|-------------------------------------------------------------|
G|-------------------------------------------------------------|
D|-4-6-7-4-6-7-------------------------------------------------|
A|-4-6-7-4-6-7-------------------------------------------------|
E|-2-4-5-2-4-5-------------------------------------------------|

Chorus
e|-------------------------------------------------------------|
B|-------------------------------------------------------------|
G|-----9---9---------------------------------------------------|
D|--11-9-7-9---------------------------------------------------|
A|--11-7-7-7---------------------------------------------------|
E|--9----5-----------------------------------------------------|

e|-------------------------------------------------------------|
B|-------------------------------------------------------------|
G|----9----9---------------------------------------------------|
D|-11-x--7-x---------------------------------------------------|
A|-11-7--7-7---------------------------------------------------|
E|-9-----5-----------------------------------------------------|
Verse

Chorus

e|-------------------------------------------------------------|
B|-------------------------------------------------------------|
G|----9---9/8----8/9---9/8-------------------------------------|
D|-11-x-7-x/x-11-x/x-7-x/x-------------------------------------|
A|-11-7-7-7/6-11-6/7-7-7/6-------------------------------------|
E|-9----5-----9------5-----------------------------------------|

Chorus

Bridge
e|-------------------------------------------------------------|
B|-------------------------------------------------------------|
G|-------------------------------------------------------------|
D|------------------------6-6-7-9------------------------------|
A|-7-7-9-11-7-7-9-11-9-x2-6-6-7-9-7-7-9-11-7-7-9-11-9----------|
E|------------------------4-4-5-7------------------------------|

e|--------------------------------------------------------------------|
B|--------------------------------------------------------------------|
G|-----------------------------------------------------------------9~-|
D|-9---------------------7-------------------9---------------------9--|
A|-9-7-7-9-11-7-7-9-11-9-7-7-7-9-11-7-7-9-11-9-7-7-9-11-7-7-9-11-9-7~~|
E|-7---------------------5-------------------7------------------------|

Life has a funny way 
Of working itself out 
Get in or get out
I'm standing by myself 
In a room that so crowed
Just let me out 
Just let me out

Been through a thousand times before 
I won't regret this anymore
All the song have been sung
All the wrongs have been done
Time now for me to go 
Time now for start the show

Last night I had a dream
That I did not wake up
I laid in bed all night 
Until my eyes would shut 
I dreamed of you
But I'm so different form
The person that you once new
Just let me out


Been through a thousand times before 
I won't regret this anymore
All the song have been sung
All the wrongs have been done
Time now for me to go 
Time now for start the show
Tap to rate this tab
# A B C D E F G H I J K L M N O P Q R S T U V W X Y Z