Dont Wake Aislin - Mighty To Save tab

-----------------------------------------------------------------
Mighty To Save - Don't Wake Aislin
-----------------------------------------------------------------
Tabbed by: David Tamplen
Email: davidbtamplen@yahoo.com

This is the Intro to Mighty To Save
By Don't Wake Aislin

Tuning: Standard


e|-3-3--3--3--3--3---3--2-----5--3-----7--3--3--3--3---3--2-----5--3-----7-|
B|-3-3--3--3--3--3---------3--------3-----3--3--3--3---------3--------3----|
G|-0-0--0--0--0--0------------------------0--0--0--0-----------------------|
D|-2-2--2--2--2--2------------------------2--2--2--2-----------------------|
A|-2-2--2--2--2--2------------------------2--2--2--2-----------------------|
E|-0-0--0--0--0--0------------------------0--0--0--0-----------------------|
   U D  D  D  U  D                        D  D  U  D

e|-3--3--3--3---3--2-----5--3-----7--3--3--3--3---3--2-----5--3------7-----|
B|-3--3--3--3---------3--------3-----3--3--3--3---------3--------3---------|
G|-0--0--0--0------------------------0--0--0--0----------------------------|
D|-2--2--2--2------------------------2--2--2--2----------------------------|
A|-3--3--3--3------------------------3--3--3--3----------------------------|
E|-0--0--0--0------------------------0--0--0--0----------------------------|
   D  D  U  D                        D  D  U  D



e|-3--3--3--3---3--2-----5--3-----7--3--3--3--3---3--2-----5--3-----7------|
B|-3--3--3--3---------3--------3-----3--3--3--3---------3--------3---------|
G|-0--0--0--0------------------------0--0--0--0----------------------------|
D|-2--2--2--2------------------------2--2--2--2----------------------------|
A|-2--2--2--2------------------------2--2--2--2----------------------------|
E|-0--0--0--0------------------------0--0--0--0----------------------------|
   D  D  U  D                        D  D  U  D

e|-3--3--3--3---3--2-----5--3-----7--3--3--3--3---3--2-----5--3------3~----|
B|-3--3--3--3---------3--------3-----3--3--3--3---------3--------3---3~----|
G|-0--0--0--0------------------------0--0--0--0----------------------0~----|
D|-2--2--2--2------------------------2--2--2--2----------------------2~----|
A|-3--3--3--3------------------------3--3--3--3----------------------2~----|
E|-0--0--0--0------------------------0--0--0--0----------------------0~----|
   D  D  U  D                        D  D  U  D                      D



e|-3--3--3--3---3--2-----5--3-----7--3--3--3--3---3--2-----5--3-----7------|
B|-3--3--3--3---------3--------3-----3--3--3--3---------3--------3---------|
G|-0--0--0--0------------------------0--0--0--0----------------------------|
D|-2--2--2--2------------------------2--2--2--2----------------------------|
A|-2--2--2--2------------------------2--2--2--2----------------------------|
E|-0--0--0--0------------------------0--0--0--0----------------------------|
   D  D  U  D                        D  D  U  D

e|-3--3--3--3---3--2-----5--3-----7--3--3--3--3---3--2-----5--3------7-----|
B|-3--3--3--3---------3--------3-----3--3--3--3---------3--------3---------|
G|-0--0--0--0------------------------0--0--0--0----------------------------|
D|-2--2--2--2------------------------2--2--2--2----------------------------|
A|-3--3--3--3------------------------3--3--3--3----------------------------|
E|-0--0--0--0------------------------0--0--0--0----------------------------|(x2)
   D  D  U  D                        D  D  U  D                      


| /  slide up
| \  slide down
| h  hammer-on
| p  pull-off
| ~  vibrato
| +  harmonic
| x  Mute note

All Rights Reserved to http://dontwakeaislin.bigcartel.com/
Tap to rate this tab
 
# A B C D E F G H I J K L M N O P Q R S T U V W X Y Z