Song name
# A B C D E F G H I J K L M N O P Q R S T U V W X Y Z

Doobie Bros - South City Midnight Lady tab

South City Midnight Lady 
Doobie Brothers

Tabbed by Ivanyadam
ivanyadam@hotmail.com

Tune your Low E down to D;
Tune your A down to G.


Intro:

e|---------------------------------------------------------------------|
B|---7/8--8-8---3--1----3p1-------------7/8--8-8---3--1----3p1---------|
G|---0/0--0-0---0--0--------0-----0-----0/0--0-0---0--0--------0-----0-| x2
D|---7/9--9-9---4--2----------0h2-------7/9--9-9---4--2----------0h2---|
G|-0-0/0--0-0---0--0--------------------0/0--0-0---0--0----------------|
D|---------------------------------------------------------------------|


Verse 1:

e|---------------------------------------------------------------------|
B|---7/8--8-8---3--1----3p1-------------7/8--8-8---3--1----3p1---------|
G|---0/0--0-0---0--0--------0-----0-----0/0--0-0---0--0--------0-----0-| 
D|---7/9--9-9---4--2----------0h2-------7/9--9-9---4--2----------0h2---|
G|-0-0/0--0-0---0--0--------------------0/0--0-0---0--0----------------|
D|---------------------------------------------------------------------|


e|---------------------------------------------------------------------|
B|---7/8--8-8---3--1----3p1----------7------7-8-----8-10-----10-8--10--|
G|---0/0--0-0---0--0--------0-----0--7--7-------7--------7------7---7--| 
D|---7/9--9-9---4--2----------0h2----7----7-------7--------7----7---7--|
G|-0-0/0--0-0---0--0-----------------7--------------------------7---7--|
D|-----------------------------------0--------------------------0---0--|


e|---------------------------------------------------------------------|
B|---7/8--8-8---3--1----3p1-------------7/8--8-8---3--1----3p1---------|
G|---0/0--0-0---0--0--------0-----0-----0/0--0-0---0--0--------0-----0-| 
D|---7/9--9-9---4--2----------0h2-------7/9--9-9---4--2----------0h2---|
G|-0-0/0--0-0---0--0--------------------0/0--0-0---0--0----------------|
D|---------------------------------------------------------------------|


e|-----------------------------------3-------3--------3--------3-------|
B|---7/8--8-8---3--1----3p1----------0-------0h1------1p0------0--1-3--|
G|---0/0--0-0---0--0--------0-----0--0--0----0---0----0---0----0--0-0--| 
D|---7/9--9-9---4--2----------0h2----0----0--0-----0--0-----0--0--2-4--|
G|---0/0--0-0---0--0-----------------0-------0--------0--------0--2-4--|
D|---------------------------------------------------------------------|


Chorus:

e|-0---0-0---0---0-0---0---0-0---0-0--------0---0-0--0-0--0-0--3---3---|
B|-3---3-3---3---3-3---3---3-3---1-1--1-1---3---3-3--3-3--1-1--0---1---|
G|-0---0-0---0---0-0---0---0-0---0-0--0-0---0---0-0--0-0--0-0--0---0---|
D|-5---5-5---4---4-4---0---0-0---2-2--2-2---5---5-5--4-4--0-0--0---0---|
G|-5---5-5---5---5-5---3---3-3---2-2--2-2---5---5-5--5-5--3-3--0---0---|
D|-------------------------------------------------------------0---0---|


e|-3--------0---0-0---0---0-0---0---0-0---0-0--------0---0-0--0-0--0-0-|
B|-0---1-3--3---3-3---3---3-3---3---3-3---1-1--1-1---3---3-3--3-3--1-1-|
G|-0---0-0--0---0-0---0---0-0---0---0-0---0-0--0-0---0---0-0--0-0--0-0-|
D|-0---2-4--5---5-5---4---4-4---0---0-0---2-2--2-2---5---5-5--4-4--0-0-|
G|-0---2-4--5---5-5---5---5-5---3---3-3---2-2--2-2---5---5-5--5-5--3-3-|
D|---------------------------------------------------------------------|

         
e|-3-------------------------------------------------------------------|
B|-0-----+7---+5-------------------------------------------------------|
G|-0-----+7---+5-------------------------------------------------------|
D|-0-----+7---+5-------------------------------------------------------|
G|-0-------------------------------------------------------------------|
D|-0-------------------------------------------------------------------|


Verse 2:

e|---------------------------------------------------------------------|
B|---7/8--8-8---3--1----3p1-------------7/8--8-8---3--1----3p1---------|
G|---0/0--0-0---0--0--------0-----0-----0/0--0-0---0--0--------0-----0-| 
D|---7/9--9-9---4--2----------0h2-------7/9--9-9---4--2----------0h2---|
G|-0-0/0--0-0---0--0--------------------0/0--0-0---0--0----------------|
D|---------------------------------------------------------------------|


e|---------------------------------------------------------------------|
B|---7/8--8-8---3--1----3p1----------7------7-8-----8-10-----10-8--10--|
G|---0/0--0-0---0--0--------0-----0--7--7-------7--------7------7---7--| 
D|---7/9--9-9---4--2----------0h2----7----7-------7--------7----7---7--|
G|-0-0/0--0-0---0--0-----------------7--------------------------7---7--|
D|-----------------------------------0--------------------------0---0--|


e|---------------------------------------------------------------------|
B|---7/8--8-8---3--1----3p1-------------7/8--8-8---3--1----3p1---------|
G|---0/0--0-0---0--0--------0-----0-----0/0--0-0---0--0--------0-----0-| 
D|---7/9--9-9---4--2----------0h2-------7/9--9-9---4--2----------0h2---|
G|-0-0/0--0-0---0--0--------------------0/0--0-0---0--0----------------|
D|---------------------------------------------------------------------|


e|-----------------------------------3-------3--------3--------3-------|
B|---7/8--8-8---3--1----3p1----------0-------0h1------1p0------0--1-3--|
G|---0/0--0-0---0--0--------0-----0--0--0----0---0----0---0----0--0-0--| 
D|---7/9--9-9---4--2----------0h2----0----0--0-----0--0-----0--0--2-4--|
G|---0/0--0-0---0--0-----------------0-------0--------0--------0--2-4--|
D|---------------------------------------------------------------------|


Chorus:

e|-0---0-0---0---0-0---0---0-0---0-0--------0---0-0--0-0--0-0--3---3---|
B|-3---3-3---3---3-3---3---3-3---1-1--1-1---3---3-3--3-3--1-1--0---1---|
G|-0---0-0---0---0-0---0---0-0---0-0--0-0---0---0-0--0-0--0-0--0---0---|
D|-5---5-5---4---4-4---0---0-0---2-2--2-2---5---5-5--4-4--0-0--0---0---|
G|-5---5-5---5---5-5---3---3-3---2-2--2-2---5---5-5--5-5--3-3--0---0---|
D|-------------------------------------------------------------0---0---|


e|-3--------0---0-0---0---0-0---0---0-0---0-0--------0---0-0--0-0--0-0-|
B|-0---1-3--3---3-3---3---3-3---3---3-3---1-1--1-1---3---3-3--3-3--1-1-|
G|-0---0-0--0---0-0---0---0-0---0---0-0---0-0--0-0---0---0-0--0-0--0-0-|
D|-0---2-4--5---5-5---4---4-4---0---0-0---2-2--2-2---5---5-5--4-4--0-0-|
G|-0---2-4--5---5-5---5---5-5---3---3-3---2-2--2-2---5---5-5--5-5--3-3-|
D|---------------------------------------------------------------------|

         
e|-3-------------------------------------------------------------------|
B|-0-----+7---+5-------------------------------------------------------|
G|-0-----+7---+5-------------------------------------------------------|
D|-0-----+7---+5-------------------------------------------------------|
G|-0-------------------------------------------------------------------|
D|-0-------------------------------------------------------------------|
         

Bridge:

e|-5-----5-5--5-----5---5--------------5-----5-8--8-8---5---5----------|
B|-6-----6-6--6-----6---6--5--5-5-6-8--6-----6-6--6-6---6---6--5-5-5-5-|
G|-0-----0-0--0-----0---0--5--5--------0-----0-0--0-0---0---0--5-5-5---|
D|-8-----8-8--8-----8---8--5--5--------8-----8-8--8-8---8---8--5-5-5---|
G|-0-----0-0--0-----0---0--5--5--------0-----0-0--0-0---0---0--5-5-5---|
D|---------------------------------------------------------------------|


e|------5-----5---5---5---5-----5---------------5-----5-5-5-5----------|
B|-6-8--6-----6---6---6---6-----6--5---5-5-6-8--6-----6-6-6-6---7/8--8-|
G|------0-----0---0---0---0-----0--5---5--------0-----0-0-0-0---0/0--0-|
D|------8-----8---8---8---8-----8--5---5--------8-----8-8-8-8---7/9--9-|
G|------0-----0---0---0---0-----0--5---5--------0-----0-0-0-0---0/0--0-|
D|---------------------------------------------------------------------|


e|---------------------------------------------------------------------|
B|-8---3--1---1---1--1---7/8--8-8---3--1---1---1--1---7/8--8-8---3--1--|
G|-0---0--0---0---0--0---0/0--0-0---0--0---0---0--0---0/0--0-0---0--0--| 
D|-9---4--2---2---2--2---7/9--9-9---4--2---2---2--2---7/9--9-9---4--2--|
G|-0---0--0---0---0--0---0/0--0-0---0--0---0---0--0---0/0--0-0---0--0--|
D|---------------------------------------------------------------------|


e|-------------------------------------------------------------8-------|
B|--1---1--1---7/8--8-8---3--1----3p1----------7----8----10----7-------|
G|--0---0--0---0/0--0-0---0--0--------0-----0--7----7-----7----7-------|
D|--2---2--2---7/9--9-9---4--2----------0h2----7----7-----7----7-------|
G|--0---0--0---0/0--0-0---0--0-----------------7----7-----7----7-------|
D|---------------------------------------------------------------------|


e|---------------------------------------------------------------------|
B|---7/8--8-8---3--1----3p1-------------7/8--8-8---3--1----3p1---------|
G|---0/0--0-0---0--0--------0-----0-----0/0--0-0---0--0--------0-----0-| 
D|---7/9--9-9---4--2----------0h2-------7/9--9-9---4--2----------0h2---|
G|-0-0/0--0-0---0--0--------------------0/0--0-0---0--0----------------|
D|---------------------------------------------------------------------|


e|-----------------------------------3-------3--------3--------3-------|
B|---7/8--8-8---3--1----3p1----------0-------0h1------1p0------0--1-3--|
G|---0/0--0-0---0--0--------0-----0--0--0----0---0----0---0----0--0-0--| 
D|---7/9--9-9---4--2----------0h2----0----0--0-----0--0-----0--0--2-4--|
G|---0/0--0-0---0--0-----------------0-------0--------0--------0--2-4--|
D|---------------------------------------------------------------------|


Chorus:

e|-0---0-0---0---0-0---0---0-0---0-0--------0---0-0--0-0--0-0--3---3---|
B|-3---3-3---3---3-3---3---3-3---1-1--1-1---3---3-3--3-3--1-1--0---1---|
G|-0---0-0---0---0-0---0---0-0---0-0--0-0---0---0-0--0-0--0-0--0---0---|
D|-5---5-5---4---4-4---0---0-0---2-2--2-2---5---5-5--4-4--0-0--0---0---|
G|-5---5-5---5---5-5---3---3-3---2-2--2-2---5---5-5--5-5--3-3--0---0---|
D|-------------------------------------------------------------0---0---|


e|-3--------0---0-0---0---0-0---0---0-0---0-0--------0---0-0--0-0--0-0-|
B|-0---1-3--3---3-3---3---3-3---3---3-3---1-1--1-1---3---3-3--3-3--1-1-|
G|-0---0-0--0---0-0---0---0-0---0---0-0---0-0--0-0---0---0-0--0-0--0-0-|
D|-0---2-4--5---5-5---4---4-4---0---0-0---2-2--2-2---5---5-5--4-4--0-0-|
G|-0---2-4--5---5-5---5---5-5---3---3-3---2-2--2-2---5---5-5--5-5--3-3-|
D|---------------------------------------------------------------------|

                        Outro:
e|-3--------------------|-0---0-0--0---0-0---0--0-0--------------------|
B|-0--------------------|-1---1-1--3---3-3---5--5-5---6-6--6-6---8---8-|
G|-0--------2/4-2-0---0-|-0---0-0--0---0-0---0--0-0---0-0--0-0---0---0-|
D|-0--------0---0-0-2-0-|-2---2-2--4---4-4---5--5-5---7-7--7-7---8---8-|
G|-0--------0---0-0-0-0-|-0---0-0--0---0-0---5--5-5---0-0--0-0---0---0-|
D|-0--------------------|----------------------------------------------|


e|--------------------------------|
B|-8--10-10--10-10----8---8-8--8--|
G|-0---0--0---0--0----0---0-0--0--| x4
D|-8--10-10--10-10----9---9-9--9--|
G|-0---0--0---0--0----0---0-0--0--|
D|--------------------------------|


Verse 1: 

Up all night I could not sleep,
The whiskey that I drank was cheap,
With shakin' hands I went and I lit up my last cigarette.

Well the sun came, the night had fled,
And sleepy eyed I reached my bed,
I saw you sleepy dreamin' there all covered and warm.

Chorus:

South city midnight lady,
I'm much obliged indeed, 
You sure have saved this man whose soul was in need.

I thought there was no reason,
For all these things I do, 
But the smile that I sent out returned with you.

Verse 2:

When day has left the night behind,
And shadows roll across my mind,
I sometimes find myself alone out walkin' the streets.

Yes and when I'm feelin' down and blue,
Then all I do is think of you,
And all my foolish problems seem to fade away.



Patrick doesn't actually play the harmonics after the first chorus in
the song, but if you're playing on an acoustic it gives you a nice
little substitution for the slide that's actually playing in the studio
version, so I decided to throw it in there for good taste. Also I didn't 
include the solos since I'm not great with the slide, so that, and the 
timing you'll have to figure out. Sorry, but hope this is helpful, as
I'm pretty sure it's accurate. Comments please!


| /  slide up
| \  slide down
| h  hammer-on
| p  pull-off
| ~  vibrato
| +  harmonic
| x  Mute note 
Tap to rate this tab
# A B C D E F G H I J K L M N O P Q R S T U V W X Y Z