Doom Of Babylon - The Advocate tab

-------------------------------------------------------------------------------
			     The Advocate -Doom Of Babylon
-------------------------------------------------------------------------------
Tabbed by:JoeyCadaver
Email:

Tuning:Drop G#

e|----------------------------------------------------------------------------|
B|----------------------------------------------------------------------------|
G|----------------------------------------------------------------------------|
D|-0-2-1-0-3-2-0-----0-2-1-0-3-2-0--h-h-h-h---0-2-1-0-3-2-0-------------------|
A|-0-2-1-0-3-2-0-+---0-2-1-0-3-2-0-56565656---0-2-1-0-3-2-0-+-----------------|
E|-0-2-1-0-3-2-0-----0-2-1-0-3-2-0------------0-2-1-0-3-2-0-------------------|
   . . . . . . .     . . . . . . .            . . . . . . .
e|----------------------------------------------------------------------------|
B|----------------------------------------------------------------------------|
G|----------------------------------------------------------------------------|
D|-0-2-1-0-3-2-0--h-h---0-2-1-0-3-2-0------0-2-1-0-3-2-0----------------------|
A|-0-2-1-0-3-2-0-5858---0-2-1-0-3-2-0-+----0-2-1-0-3-2-0----------------------|
E|-0-2-1-0-3-2-0--------0-2-1-0-3-2-0------0-2-1-0-3-2-0-+--------------------|
   . . . . . . .        . . . . . . .      . . . . . . .
e|----------------------------------------------------------------------------|
B|----------------------------------------------------------------------------|
G|----------------------------------------------------------------------------|
D|--0-2-1-0-3-2-0-----0-2-1-0-3-2-0-------------------------------------------|
A|--0-2-1-0-3-2-0-+---0-2-1-0-3-2-0--+----------------------------------------|
E|--0-2-1-0-3-2-0-----0-2-1-0-3-2-0-------------------------------------------|
    . . . . . . .     . . . . . . .
e|---------------------------------------------------------------------------|
B|---------------------------------------------------------------------------|
G|---------------------------------------------------------------------------|
D|---5555555555555555--4444444444444444---5555555555555555-4444444444444444--|
A|---5555555555555555--4444444444444444---5555555555555555-4444444444444444--|
E|---5555555555555555--4444444444444444---5555555555555555-4444444444444444--|
     ................  ................   ................ ................
e|---------------------------------------------------------------------------|
B|---------------------------------------------------------------------------|
G|---------------------------------------------------------------------------|
D|---10101010101010101010101010101010-99999999999999999----------------------|
A|---10101010101010101010101010101010-99999999999999999----------------------|
E|---10101010101010101010101010101010-99999999999999999----------------------|
     ................................ .................
e|---------------------------------------------------------------------------|
B|---------------------------------------------------------------------------|
G|---------------------------------------------------------------------------|
D|---10101010101010101010101010101010-99999999999999999----------------------|
A|---10101010101010101010101010101010-99999999999999999----------------------|
E|---10101010101010101010101010101010-99999999999999999----------------------|
     ...............................  ................
e|---------------------------------------------------------------------------|
B|---------------------------------------------------------------------------|
G|---------------------------------------------------------------------------|
D|---5555555555555555--4444444444444444---5555555555555555-4444444444444444--|
A|---5555555555555555--4444444444444444---5555555555555555-4444444444444444--|
E|---5555555555555555--4444444444444444---5555555555555555-4444444444444444--|
     ................  ................   ................ ................
e|---------------------------------------------------------------------------|
B|---------------------------------------------------------------------------|
G|---------------------------------------------------------------------------|
D|---10101010101010101010101010101010-99999999999999999----------------------|
A|---10101010101010101010101010101010-99999999999999999----------------------|
E|---10101010101010101010101010101010-99999999999999999----------------------|
     ...............................  ................
e|-----------------------------------------------------------------------------|
B|-----------------------------------------------------------------------------|
G|-----------------------------------------------------------------------------|
D|--10101010101010101010101010101010-99999999999999999-------------------------|
A|---10101010101010101010101010101010-99999999999999999------------------------|
E|---10101010101010101010101010101010-99999999999999999------------------------|
     ...............................  ................

e|----------------------------------------------------------------------------|
B|----------------------------------------------------------------------------|
G|----------------------------------------------------------------------------|
D|--0----2----1----0----3----2------------------------------------------------|
A|--0----2----1----0----3----2------------------------------------------------|
E|--0----2----1----0----3----2-222111222111-----------------------------------|
                               ............ Repeat untell end


************************************

| /   slide up
| \   slide down
| h   hammer-on
| p   pull-off
| ~   vibrato
| +   harmonic
| x   Mute note
| b   Bend
| pb  Pre-bend
| pbr Pre-bend release
Tap to rate this tab
 
# A B C D E F G H I J K L M N O P Q R S T U V W X Y Z