Song name
# A B C D E F G H I J K L M N O P Q R S T U V W X Y Z

Doom Of Babylon - Ashes Like Oxygen tab

-------------------------------------------------------------------------------
			     Ashes Like Oxygen - Doom Of Babylon
-------------------------------------------------------------------------------
Tabbed by:Joeycadaver
Email:

Tuning:Drop G#

e|----------------------------------------------------------------------------|
B|----------------------------------------------------------------------------|
G|----------------------------------------------------------------------------|
D|-5~~~4---000-000-1-4----000-000-4-3----000-000-1-4----000-000-4-3-----------|
A|-5~~~4---000-000-1-4----000-000-4-3----000-000-1-4----000-000-4-3-----------|
E|-5~~~4---000-000-1-4----000-000-4-3----000-000-1-4----000-000-4-3-----------|
           ... ... . .    ... ... . .    ... ... . .    ... ... . . 3434 1313  4646 3~~~~
E|---------------------------------------------------------------------------|
B|---------------------------------------------------------------------------|
G|---------------------------------------------------------------------------|
D|---000-000-1-3----000-000--3-2---000-000-1-3----000-000-3-2----------------|
A|---000-000-1-3----000-000--3-2---000-000-1-3----000-000-3-2----------------|
E|---000-000-1-3----000-000--3-2---000-000-1-3----000-000-3-2----------------|


e|---------------------------------------------------------------------------|
B|---------------------------------------------------------------------------|
G|---------------------------------------------------------------------------|
D|---------------------------------------------------------------------------|
A|--------------------------------+------------------------------------------|
E|--11111-2-11111-2-11111-2-11111--------------------------------------------|
Repeat 4 times


e|--------------------------------------------------------------------------|
B|--------------------------------------------------------------------------|
G|--------------------------------------------------------------------------|
D|--------8-7---------10-8-7-8----------------------------------------------|
A|-5-8-585-----5-8-585------------------------------------------------------|
E|--------------------------------------------------------------------------|
Tremolo pick whole riff Repeat 4x

e|----------------------------------------------------------------------------|
B|----------------------------------------------------------------------------|
G|------------3-2------------5-3-2-3------------------------------------------|
D|-0-3-030----3-2-0-3-030----5-3-2-3------------------------------------------|
A|-0-3-030----1-0-0-3-030----3-1-0-1------------------------------------------|
E|-0-3-030--------0-3-030-----------------------------------------------------|

e|----------------------------------------------------------------------------|
B|----------------------------------------------------------------------------|
G|----------------------------------------------------------------------------|
D|--22222222-33333333---------------------------------------------------------|
A|--22222222-33333333---------------------------------------------------------|
E|--22222222-33333333---------------------------------------------------------|
Repeat 2x

e|----------------------------------------------------------------------------|
B|----------------------------------------------------------------------------|
G|----------------------------------------------------------------------------|
D|--2-1-3-2-2-1-3-2-----------------------------------------------------------|
A|--2-1-3-2-2-1-3-2---5-5-555-5-5-5--5-5-555-5-5------------------------------|
E|--2-1-3-2-2-1-3-2---6-6-666-6-6-6--6-6-666-6-6-6666-6666-66-----------------|
                          These are not triplets
e|---------------------------------------------------------------------------|
B|---------------------------------------------------------------------------|
G|---------------------------------------------------------------------------|
D|---------------------------------------------------------------------------|
A|-0-0-0-0-0-0-0-0-0-0-0-0-0-0-0---------------------------------------------|
E|-1-1-1-1-1-1-1-1-1-1-1-1-1-1-1---------------------------------------------|



 After Breakdown repeat fast tremolo part
e|----------------------------------------------------------------------------|
B|----------------------------------------------------------------------------|
G|----------------------------------------------------------------------------|
D|----------------------------------------------------------------------------|
A|----------------------------------------------------------------------------|
E|-000-000-000-000-111-111-111-111-000-000-000-000-111-111-111-111------------|
   ... ... ... ... ... ... ... ... ... ... ... ... ... ... ... ... then repeat riff again
e|----------------------------------------------------------------------------| in powercords
B|----------------------------------------------------------------------------|
G|----------------------------------------------------------------------------|
D|-2----1----3----2----1---0--------------------------------------------------|
A|-2----1----3----2----1---0--------------------------------------------------|
E|-2----1----3----2----1---0--------------------------------------------------|
Repeat tell end

************************************

| /   slide up
| \   slide down
| h   hammer-on
| p   pull-off
| ~   vibrato
| +   harmonic
| x   Mute note
| b   Bend
| pb  Pre-bend
| br  Bend release
| pbr Pre-bend release
| brb Bend release bend

************************************
Tap to rate this tab
 
# A B C D E F G H I J K L M N O P Q R S T U V W X Y Z