Song name
# A B C D E F G H I J K L M N O P Q R S T U V W X Y Z

Doom - Symptoms Of The Universe tab

intro/verse:
e|------------------------------------------------------------------------|
B|------------------------------------------------------------------------|
G|------------------------------------------------------------------------|
D|------------------------------------------------------------------------|
A|---------------8-8-------------14-8-14----------------------------------|
E|---0-0-0-0-0-0-6-6-0-0-0-0-0-0-12-6-12----------------------------------|

chorus:
e|------------------------------------------------------------------------|
B|------------------------------------------------------------------------|
G|------------------------------------------------------------------------|
D|------------------------------------------------------------------------|
A|---12-8-7---------------------------------------------------------------|
E|---10-6-5---------------------------------------------------------------|
Tap to rate this tab
# A B C D E F G H I J K L M N O P Q R S T U V W X Y Z