Song name
# A B C D E F G H I J K L M N O P Q R S T U V W X Y Z

Doom - Exploitation tab

intro/verse:
e|-------------------------------------------------------------------------|
B|-------------------------------------------------------------------------|
G|-------------------------------------------------------------------------|
D|---5-----5---------------------------------------------------------------|
A|---3-7-6-3---------------------------------------------------------------|
E|-----5-4-----------------------------------------------------------------|

chorus:
e|-------------------------------------------------------------------------|
B|-------------------------------------------------------------------------|
G|-------------------------------------------------------------------------|
D|-------------------------------------------------------------------------|
A|---3-6-------------------------------------------------------------------|
E|---1-4-------------------------------------------------------------------|

Tap to rate this tab
# A B C D E F G H I J K L M N O P Q R S T U V W X Y Z