Song name
# A B C D E F G H I J K L M N O P Q R S T U V W X Y Z

Doom - Nazi Die tab

Doom
Nazi Die

 Intro:
 
[gtr 1] x6
|------------------------------------------------------|
|------------------------------------------------------|
|------------------------------------------------------|
|------------------------------------------------------|
|-7-7-7-7-7/10-10-10-10-10-10\5-5-5-5-5-5/8-8-8-8-8-8--|
|-5-5-5-5-5/8--8--8--8--8--8-\3-3-3-3-3-3/6-6-6-6-6-6--| 
| . .   .      .  .     .       . .   .     . .   .
[gtr 2] x4       [gtr 1,2]
|--------------| |------------|
|--------------| |------------|
|--------------| |------------|
|--------------| |-8-8-8-8-7--|
|--7--10-5--8--| |-8-8-8-8-7--|
|--5--8--3--6--| |-6-6-6-6-5--|

Verse:
               x4
|-----------------|-----------|
|-----------------|-----------|
|-----------------|-----------|
|-7-55555-7-5-888-|-\44444444-|
|-7-55555-7-5-888-|-\44444444-|
|-5-33333-5-3-666-|-\22222222-|
Tap to rate this tab
 
# A B C D E F G H I J K L M N O P Q R S T U V W X Y Z