Song name
# A B C D E F G H I J K L M N O P Q R S T U V W X Y Z

Doom - Exploitation tab

Doom

War Crimes (Inhuman Beings)

intro/verse:

e|-------------------------------------------------------------------------|
B|-------------------------------------------------------------------------|
G|-------------------------------------------------------------------------|
D|-------------------------------------------------------------------------|
A|---9999999999997-5-9999999999997-5---------------------------------------|
E|---7777777777775-3-7777777777775-3---------------------------------------|


chorus:
e|-------------------------------------------------------------------------|
B|-------------------------------------------------------------------------|
G|-------------------------------------------------------------------------|
D|-------------------------------------------------------------------------|
A|---22-55-22-55-22-55-----------------------------------------------------|
E|---00-33-00-33-00-33-----------------------------------------------------|
Tap to rate this tab
 
# A B C D E F G H I J K L M N O P Q R S T U V W X Y Z