Song name
# A B C D E F G H I J K L M N O P Q R S T U V W X Y Z

Doom - Doom Theme tab

|--------------------------------------------------|
|--------------------------------------------------|
|--------------------------------------------------|
|--------------------------------------------------|
|--------------------------------------------------|
|-0-0-12-0-0-10-0-0-8-0-0-6-0-0-6/7----------------|

|--------------------------------------------------|
|--------------------------------------------------|
|--------------------------------------------------|
|--------------------------------------------------|
|--------------------------------------------------|
|-0-0-12-0-0-10-0-0-8-0-0-6-6----------------------|

|--------------------------------------------------|
|--------------------------------------------------|
|--------------------------------------------------|
|--------------------------------------------------|
|-0-0-12-0-0-10-0-0-8-0-0-6-0-0-6/7----------------|
|--------------------------------------------------|

|--------------------------------------------------|
|--------------------------------------------------|
|--------------------------------------------------|
|--------------------------------------------------|
|-0-0-12-0-0-10-0-0-8-0-0-6-6----------------------|
|--------------------------------------------------|
Tap to rate this tab
# A B C D E F G H I J K L M N O P Q R S T U V W X Y Z