Song name
# A B C D E F G H I J K L M N O P Q R S T U V W X Y Z

Doomriders - Ride Or Die tab

Song  : RIDE OR DIE
Artist: Doomriders
Album : Black Thunder
Tabbed by: Nick Eutzler

Tuning: Drop D (DADGBe)

(Bass Intro)
G|-----------------------------------|
D|-----------------------------------| x4
A|-----------------------------------|
D|--0h2------5------4h5-4------0-----|

(Both Guitars)
e|-----------------------------------|
B|-----------------------------------|
G|-----------------------------------|
D|--0-2------5------4-5-4------0-----| x4
A|--0-2------5------4-5-4------0-----|
D|--0-2------5------4-5-4------0-----|

(Guitar 1)
e|-----------------------------------|
B|-----------------------------------|
G|-----------9------7-9-7------------|    \
D|--7-9------------------------7-----| x4  \
A|-----------------------------------|      \
D|-----------------------------------|       \
                                              \
(Guitar 2 - listen for timing on bends)         PLAYED TOGETHER
e|-----------------------------------|	       /
B|-----------------------------------|       /
G|-----------------------------------|      /
D|-----------9b-----7-9-7b-----------| x4  /
A|--9-10-----------------------9-----|    /
D|-----------------------------------|

*SONG SPEEDS UP* 		      (feedback)
e|-----------------------------------------------------------------------|
B|-----------------------------------------------------------------------|
G|-----------------------------------------------------------------------|
D|--2----------------------------------2---------------------------------|
A|--2----------------------------------2-----------------PICK SLIDE------|
D|--2----------------------------------2---------------------------------|


e|-----------------------------------------------------------------------|
B|-----------------------------------------------------------------------|
G|-----------------------------------------------------------------------|
D|--2--2-20---2--2-20---5-5-5-7b-7-5---2--2-20---2--2-20---5-5-5-7b-7-5--| x4
A|--2--2-20---2--2-20---5-5-5-7b-7-5---2--2-20---2--2-20---5-5-5-7b-7-5--|
D|--2--2-20---2--2-20---5-5-5-7b-7-5---2--2-20---2--2-20---5-5-5-7b-7-5--|


e|-----------------------------------------------------------------------|
B|-----------------------------------------------------------------------|
G|-----------------------------------------------------------------------|
D|--7-7-7-0-0-0---2--2-22---2--2-22---5-5-5-0-0-0---2--2-22---2--2-22----|
A|--7-7-7-0-0-0---2--2-22---2--2-22---5-5-5-0-0-0---2--2-22---2--2-22----|
D|--7-7-7-0-0-0---2--2-22---2--2-22---5-5-5-0-0-0---2--2-22---2--2-22----|
                 pm pm pm  pm pm pm                pm pm pm  pm pm pm

e|-----------------------------------------------------------------------|
B|-----------------------------------------------------------------------|
G|-----------------------------------------------------------------------|
D|--7-7-7-0-0-0---2--2-22---2--2-22---5-5-5-0-0-0---2--------------------|
A|--7-7-7-0-0-0---2--2-22---2--2-22---5-5-5-0-0-0---2--------------------|
D|--7-7-7-0-0-0---2--2-22---2--2-22---5-5-5-0-0-0---2--------------------|
                 pm pm pm  pm pm pm                 pm

e|-----------------------------------------------------------------------|
B|-----------------------------------------------------------------------|
G|-----------------------------------------------------------------------|
D|--2--2-20---2--2-20---5-5-5-7b-7-5---2--2-20---2--2-20---5-5-5-7b-7-5--| x4
A|--2--2-20---2--2-20---5-5-5-7b-7-5---2--2-20---2--2-20---5-5-5-7b-7-5--|
D|--2--2-20---2--2-20---5-5-5-7b-7-5---2--2-20---2--2-20---5-5-5-7b-7-5--|


e|-----------------------------------------------------------------------|
B|-----------------------------------------------------------------------|
G|-----------------------------------------------------------------------|
D|--7-7-7-0-0-0---2--2-22---2--2-22---5-5-5-0-0-0---2--2-22---2--2-22----| x3
A|--7-7-7-0-0-0---2--2-22---2--2-22---5-5-5-0-0-0---2--2-22---2--2-22----|
D|--7-7-7-0-0-0---2--2-22---2--2-22---5-5-5-0-0-0---2--2-22---2--2-22----|
                 pm pm pm  pm pm pm                pm pm pm  pm pm pm

e|-----------------------------------------------------------------------|
B|-----------------------------------------------------------------------|
G|-----------------------------------------------------------------------|
D|--7-7-7-0-0-0---2--2-22---2--2-22---5-5-5-0-0-0------------------------|
A|--7-7-7-0-0-0---2--2-22---2--2-22---5-5-5-0-0-0------------------------|
D|--7-7-7-0-0-0---2--2-22---2--2-22---5-5-5-0-0-0------------------------|
                 pm pm pm  pm pm pm


*SONG SLOWS BACK DOWN*
(Rhythm)
e|-----------------------------------|     |-------|
B|-----------------------------------|     |-------|
G|-----------------------------------|     |-------|
D|--0-2------5------4-5-4------0-----| x4  |--0-2--|
A|--0-2------5------4-5-4------0-----|     |--0-2--|
D|--0-2------5------4-5-4------0-----|     |--0-2--|


(Lead)  listen for vibrato
e|--------------------------------------------------------------------------|
B|--17---17---17-17--17-17p15-17---17p15-15-15-15--15--15h17-17--17--17-17--|
G|--------------------------------------------------------------------------|
D|--------------------------------------------------------------------------|
A|--------------------------------------------------------------------------|
D|--------------------------------------------------------------------------|  

e|--------------------------------------------------------------------------|
B|--17-17-12--12p10-10-10-10-10\8-10-8/10-10------------8-8--10p8-10b--10-9-|
G|-------------------------------------------9-9---7h9----------------------|
D|--------------------------------------------------------------------------|
A|--------------------------------------------------------------------------|
D|--------------------------------------------------------------------------|

Pick 10th and bend to sound like 11th, but don't release... Then bend 10th  higher 
to sound like the 12th and start alternate picking.  Let off the bend as you pick.
                                            _____\          /_____                             
                                           /                      \
e|--------------------------------------------------------------------------|
B|10b-12b-12b-------------------------12--10b(11)~~10(12)`10`10`10`10`-8-10b|
G|----12b-12b--12--------------12--14---------------------------------------|
D|----------------14-14--12-14----------------------------------------------|
A|--------------------------------------------------------------------------|
D|--------------------------------------------------------------------------|

e|----------------|
B|-10b--8--8------|
G|-----------9-9--|
D|----------------|
A|----------------|
D|----------------|
                                                             | h   hammer-on
                                                             | p   pull off
                                                             | b   bend
                                                             | pm  palm mute
                                                             | /   slide up
                                                             | \   slide down



http://www.myspace.com/doomriders
Tap to rate this tab
# A B C D E F G H I J K L M N O P Q R S T U V W X Y Z