Guitaretab - guitar tabs
Song name
# A B C D E F G H I J K L M N O P Q R S T U V W X Y Z

Doomsword - The Siege tab

Artist: Doomsword
Song: The Siege
Album: Let Battle Commence

Tuning: Standard D (DGCFAD)
Song Length: 8:20

This song is really long, but itís also really good, and really easy to play.  Not too 
different parts, so I managed to tab it out in a day.  Have fun!

Since this is Doomsword's first tab on UG, here's their myspace:
http://www.myspace.com/officialdoomsword

0:00-0:49
D---------------------------------------------|
A---------------------------------------------|
F---------------------------------------------|
C---------------------------------------------|
G-2-2-----10-----9-----7-----3-----3-5-3-2~~--|
D-0-0-000----000---000---000---000------------|
PM    ---    ---   ---   ---   ---

D------------------------------------------------------------|
A------------------------------------------------------------|
F------------------------------------------------------------|
C--------------------------------------------12--------------|
G-2-2-----10-----9-----7-----12-----14-15-14----15-14-14-15--|
D-0-0-000----000---000---000----000--------------------------|
PM    ---    ---   ---   ---    ---

D---------------------------------------------|
A---------------------------------------------|
F---------------------------------------------|
C---------------------------------------------|
G-2-2-----10-----9-----7-----3-----3-5-3-2~~--|
D-0-0-000----000---000---000---000------------|
PM    ---    ---   ---   ---   ---

D---------------------------------------------------------------|
A---------------------------------------------------------------|
F---------------------------------------------------------------|
C-----------------------------------14-12----12-----------------|
G-2-2-----10-----9-----7-----12-----------15----15-14-15-14-12--|
D-0-0-000----000---000---000----000-----------------------------|
PM    ---    ---   ---   ---    ---

Play section 2 times.

0:49-1:23
D----------------------------------------------|
A----------------------------------------------|
F----------------------------------------------|
C----------------------------------------------|
G-------2-----------2-----------2-----------2--|
D-0000000-0-0-0-0-0-0-0-0-0000000-0-0-0000000--|
PM------  - - - - -   - - ------  - - ------

D----------------------------------------------|
A----------------------------------------------|
F----------------------------------------------|
C----------------------------------------------|
G-------2-----------2-----------2-----------2--|
D-0000000-0-0-0-0-0-0-0-0-0000000-0-0-0000000--|
PM------  - - - - -   - - ------  - - ------

Play section 3 times.

1:23-1:45
D---------------------------------------------|
A---------------------------------------------|
F---------------------------------------------|
C---------------------------------------------|
G-2-2-----10-----9-----7-----3-----3-5-3-2~~--|
D-0-0-000----000---000---000---000------------|
PM    ---    ---   ---   ---   ---

D------------------------------------------------------------|
A------------------------------------------------------------|
F------------------------------------------------------------|
C--------------------------------------------12--------------|
G-2-2-----10-----9-----7-----12-----14-15-14----15-14-14-15--|
D-0-0-000----000---000---000----000--------------------------|
PM    ---    ---   ---   ---    ---

D---------------------------------------------|
A---------------------------------------------|
F---------------------------------------------|
C---------------------------------------------|
G-2-2-----10-----9-----7-----3-----3-5-3-2~~--|
D-0-0-000----000---000---000---000------------|
PM    ---    ---   ---   ---   ---

D---------------------------------------------------------------|
A---------------------------------------------------------------|
F---------------------------------------------------------------|
C-----------------------------------14-12----12-----------------|
G-2-2-----10-----9-----7-----12-----------15----15-14-15-14-12--|
D-0-0-000----000---000---000----000-----------------------------|
PM    ---    ---   ---   ---    ---

Play section 1 time.

1:45-2:19
D----------------------------------------------|
A----------------------------------------------|
F----------------------------------------------|
C----------------------------------------------|
G-------2-----------2-----------2-----------2--|
D-0000000-0-0-0-0-0-0-0-0-0000000-0-0-0000000--|
PM------  - - - - -   - - ------  - - ------

D----------------------------------------------|
A----------------------------------------------|
F----------------------------------------------|
C----------------------------------------------|
G-------2-----------2-----------2-----------2--|
D-0000000-0-0-0-0-0-0-0-0-0000000-0-0-0000000--|
PM------  - - - - -   - - ------  - - ------

Play section 3 times.

2:19-2:41
D----------------------------------------------------|
A----------------------------------------------------|
F----------------------------------------------------|
C----------------------------------------------------|
G-9-----9-----9------------9-----9-----9-------------|
D-7-7-7-7-7-7-7-7-7-888755-7-7-7-7-7-7-7-7-7-888755--|
PM  - -   - -   - - ------   - -   - -   - - ------

D-----------------------------------|
A-----------------------------------|
F-----------------------------------|
C-----------------------------------|
G-9-----9-----9------------7--------|
D-7-7-7-7-7-7-7-7-7-888755-5--------|
PM  - -   - -   - - ------

Play section 2 times.

2:41-3:07
D-------------------------------------------------------------------------|
A-------------------------------------------------------------------------|
F-------------------------------------------------------------------------|
C-------------------------------------------------------------------------|
G-2--2--2--2--2--2--2--2--2--2--2--2--2--2--2--2--2--2--2--2--2--2--2--2--|
D-0--0--0--0--0--0--0--0--0--0--0--0--0--0--0--0--0--0--0--0--0--0--0--0--|
PM-  -  -  -  -  -  -  -  -  -  -  -  -  -  -  -  -  -  -  -  -  -  -  -

D--------------------|
A--------------------|
F--------------------|
C--------------------|
G-3--------7----5----|
D-1--------5----3----|
PM

D-------------------------------------------------------------------------|
A-------------------------------------------------------------------------|
F-------------------------------------------------------------------------|
C-------------------------------------------------------------------------|
G-2--2--2--2--2--2--2--2--2--2--2--2--2--2--2--2--2--2--2--2--2--2--2--2--|
D-0--0--0--0--0--0--0--0--0--0--0--0--0--0--0--0--0--0--0--0--0--0--0--0--|
PM-  -  -  -  -  -  -  -  -  -  -  -  -  -  -  -  -  -  -  -  -  -  -  -

D--------------------------------------------------|
A--------------------------------------------------|
F--------------------------------------------------|
C-5-3-2-3-2---2------------------------------------|
G-----------5---5-3-5-3-2-3-2---2------------------|
D-----------------------------5---5-3-5-3-2-3-2-0--|
PM

Play section 1 time.

3:07-3:21
D-----------------------------------------------------|
A-----------------------------------------------------|
F-----------------------------------------------------|
C-----------------------------------------------------|
G-2--------3----7--5--2--------2---2---2---3---5---7--|
D-0--------1----5--3--0--------0---0---0---1---3---5--|
PM                             -   -   -   -   -   -

D-----------------------------------------------------|
A-----------------------------------------------------|
F-----------------------------------------------------|
C-----------------------------------------------------|
G-2--------3----7--5--2--------2---2---2---3---5---7--|
D-0--------1----5--3--0--------0---0---0---1---3---5--|
PM                             -   -   -   -   -   -

Play section 1 time.

3:21-3:40
D--------------------------------------------|
A--------------------------------------------|
F--------------------------------------------|
C--------------------------------------------|
G-2----2----2----2----2---2---2---3---5---7--|
D-0----0----0----0----0---0---0---1---3---5--|
PM-    -    -    -    -   -   -   -   -   -

D--------------------------------------------|
A--------------------------------------------|
F--------------------------------------------|
C--------------------------------------------|
G-2----2----2----2----2---2---2---3---5---7--|
D-0----0----0----0----0---0---0---1---3---5--|
PM-    -    -    -    -   -   -   -   -   -

D--------------------------------------------|
A--------------------------------------------|
F--------------------------------------------|
C--------------------------------------------|
G-2----2----2----2----9---9---9---9---7---5--|
D-0----0----0----0----7---7---7---7---5---3--|
PM-    -    -    -

D----------------------------------------|
A----------------------------------------|
F----------------------------------------|
C----------------------------------------|
G-4----4----4----4----7---7---7---9---5--|
D-2----2----2----2----5---5---5---7---3--|
PM-    -    -    -

D--------------------------------------|
A--------------------------------------|
F--------------------------------------|
C--------------------------------------|
G-2--------5--------4------------------|
D-0--------3--------2------------------|
PM

Play section 1 time.

3:40-4:25
D---------------------------------------------|
A---------------------------------------------|
F---------------------------------------------|
C---------------------------------------------|
G-2-2-----10-----9-----7-----3-----3-5-3-2~~--|
D-0-0-000----000---000---000---000------------|
PM    ---    ---   ---   ---   ---
[ Tab from: http://www.guitaretab.com/d/doomsword/103974.html ]
D------------------------------------------------------------|
A------------------------------------------------------------|
F------------------------------------------------------------|
C--------------------------------------------12--------------|
G-2-2-----10-----9-----7-----12-----14-15-14----15-14-14-15--|
D-0-0-000----000---000---000----000--------------------------|
PM    ---    ---   ---   ---    ---

D---------------------------------------------|
A---------------------------------------------|
F---------------------------------------------|
C---------------------------------------------|
G-2-2-----10-----9-----7-----3-----3-5-3-2~~--|
D-0-0-000----000---000---000---000------------|
PM    ---    ---   ---   ---   ---

D---------------------------------------------------------------|
A---------------------------------------------------------------|
F---------------------------------------------------------------|
C-----------------------------------14-12----12-----------------|
G-2-2-----10-----9-----7-----12-----------15----15-14-15-14-12--|
D-0-0-000----000---000---000----000-----------------------------|
PM    ---    ---   ---   ---    ---

Play section 2 times.

4:25-5:31
D----------------------------------------------|
A----------------------------------------------|
F----------------------------------------------|
C----------------------------------------------|
G-------2-----------2-----------2-----------2--|
D-0000000-0-0-0-0-0-0-0-0-0000000-0-0-0000000--|
PM------  - - - - -   - - ------  - - ------

D----------------------------------------------|
A----------------------------------------------|
F----------------------------------------------|
C----------------------------------------------|
G-------2-----------2-----------2-----------2--|
D-0000000-0-0-0-0-0-0-0-0-0000000-0-0-0000000--|
PM------  - - - - -   - - ------  - - ------

Play section 6 times.

5:31-5:54
D----------------------------------------------------|
A----------------------------------------------------|
F----------------------------------------------------|
C----------------------------------------------------|
G-9-----9-----9------------9-----9-----9-------------|
D-7-7-7-7-7-7-7-7-7-888755-7-7-7-7-7-7-7-7-7-888755--|
PM  - -   - -   - - ------   - -   - -   - - ------

D-----------------------------------|
A-----------------------------------|
F-----------------------------------|
C-----------------------------------|
G-9-----9-----9------------7--------|
D-7-7-7-7-7-7-7-7-7-888755-5--------|
PM  - -   - -   - - ------

Play section 2 times.

5:54-6:20
D-------------------------------------------------------------------------|
A-------------------------------------------------------------------------|
F-------------------------------------------------------------------------|
C-------------------------------------------------------------------------|
G-2--2--2--2--2--2--2--2--2--2--2--2--2--2--2--2--2--2--2--2--2--2--2--2--|
D-0--0--0--0--0--0--0--0--0--0--0--0--0--0--0--0--0--0--0--0--0--0--0--0--|
PM-  -  -  -  -  -  -  -  -  -  -  -  -  -  -  -  -  -  -  -  -  -  -  -

D--------------------|
A--------------------|
F--------------------|
C--------------------|
G-3--------7----5----|
D-1--------5----3----|
PM

D-------------------------------------------------------------------------|
A-------------------------------------------------------------------------|
F-------------------------------------------------------------------------|
C-------------------------------------------------------------------------|
G-2--2--2--2--2--2--2--2--2--2--2--2--2--2--2--2--2--2--2--2--2--2--2--2--|
D-0--0--0--0--0--0--0--0--0--0--0--0--0--0--0--0--0--0--0--0--0--0--0--0--|
PM-  -  -  -  -  -  -  -  -  -  -  -  -  -  -  -  -  -  -  -  -  -  -  -

D--------------------------------------------------|
A--------------------------------------------------|
F--------------------------------------------------|
C-5-3-2-3-2---2------------------------------------|
G-----------5---5-3-5-3-2-3-2---2------------------|
D-----------------------------5---5-3-5-3-2-3-2-0--|
PM

Play section 1 time.

6:20-6:34
D-----------------------------------------------------|
A-----------------------------------------------------|
F-----------------------------------------------------|
C-----------------------------------------------------|
G-2--------3----7--5--2--------2---2---2---3---5---7--|
D-0--------1----5--3--0--------0---0---0---1---3---5--|
PM                             -   -   -   -   -   -

D-----------------------------------------------------|
A-----------------------------------------------------|
F-----------------------------------------------------|
C-----------------------------------------------------|
G-2--------3----7--5--2--------2---2---2---3---5---7--|
D-0--------1----5--3--0--------0---0---0---1---3---5--|
PM                             -   -   -   -   -   -

Play section 1 time.

6:34-6:53
D--------------------------------------------|
A--------------------------------------------|
F--------------------------------------------|
C--------------------------------------------|
G-2----2----2----2----2---2---2---3---5---7--|
D-0----0----0----0----0---0---0---1---3---5--|
PM-    -    -    -    -   -   -   -   -   -

D--------------------------------------------|
A--------------------------------------------|
F--------------------------------------------|
C--------------------------------------------|
G-2----2----2----2----2---2---2---3---5---7--|
D-0----0----0----0----0---0---0---1---3---5--|
PM-    -    -    -    -   -   -   -   -   -

D--------------------------------------------|
A--------------------------------------------|
F--------------------------------------------|
C--------------------------------------------|
G-2----2----2----2----9---9---9---9---7---5--|
D-0----0----0----0----7---7---7---7---5---3--|
PM-    -    -    -

D----------------------------------------|
A----------------------------------------|
F----------------------------------------|
C----------------------------------------|
G-4----4----4----4----7---7---7---9---5--|
D-2----2----2----2----5---5---5---7---3--|
PM-    -    -    -

D---------------------------------------|
A---------------------------------------|
F---------------------------------------|
C---------------------------------------|
G-2--------5--------4--------2----------|
D-0--------3--------2--------0----------|
PM

Play section 1 time.

6:53-7:23
(I donít know the solo, very sorry, but hereís the rhythm, through the next two sections 
the tab)
D-------------------------------------------------|
A-------------------------------------------------|
F-------------------------------------------------|
C-------------------------------------------------|
G-2--2--2--2--2--2--2--2--2--2--2--2--2--2--2--2--|
D-0--0--0--0--0--0--0--0--0--0--0--0--0--0--0--0--|
PM-  -  -  -  -  -  -  -  -  -  -  -  -  -  -  -

D--------------------|
A--------------------|
F--------------------|
C--------------------|
G-3--------7----5----|
D-1--------5----3----|
PM

Play section 3 times.

7:23-7:33
D-------------------------------------------------|
A-------------------------------------------------|
F-------------------------------------------------|
C-------------------------------------------------|
G-2--2--2--2--2--2--2--2--2--2--2--2--2--2--2--2--|
D-0--0--0--0--0--0--0--0--0--0--0--0--0--0--0--0--|
PM-  -  -  -  -  -  -  -  -  -  -  -  -  -  -  -

D---------------------------------|
A---------------------------------|
F---------------------------------|
C---------------------------------|
G-3--------2---2---2---3---5---7--|
D-1--------0---0---0---1---3---5--|
PM         -   -   -   -   -   -

Play section 1 time.

7:33-8:00
D--------------------------------------------|
A--------------------------------------------|
F--------------------------------------------|
C--------------------------------------------|
G-2----2----2----2----2---2---2---3---5---7--|
D-0----0----0----0----0---0---0---1---3---5--|
PM-    -    -    -    -   -   -   -   -   -

D--------------------------------------------|
A--------------------------------------------|
F--------------------------------------------|
C--------------------------------------------|
G-2----2----2----2----2---2---2---3---5---7--|
D-0----0----0----0----0---0---0---1---3---5--|
PM-    -    -    -    -   -   -   -   -   -

D--------------------------------------------|
A--------------------------------------------|
F--------------------------------------------|
C--------------------------------------------|
G-2----2----2----2----9---9---9---9---7---5--|
D-0----0----0----0----7---7---7---7---5---3--|
PM-    -    -    -

D----------------------------------------|
A----------------------------------------|
F----------------------------------------|
C----------------------------------------|
G-4----4----4----4----7---7---7---9---5--|
D-2----2----2----2----5---5---5---7---3--|
PM-    -    -    -

Play section 2 times.

8:00-8:20
D---------------------------------------|
A---------------------------------------|
F---------------------------------------|
C---------------------------------------|
G---------------------------------------|
D-000000000ó-000-0--000000000--000-0-0--|
PM---------  --- -  ---------  --- - -

D---------------------------------------|
A---------------------------------------|
F---------------------------------------|
C---------------------------------------|
G------------------------------------2--|
D-000000000ó-000-0--000000000--000-0-0--|
PM---------  --- -  ---------  --- - -

Play section 1 time.

That's it!  Hope you enjoyed!

Tab Legend
ď = tremolo pick
* = pinch harmonic
H = hammer-on
P = pull-off
/ = slide up
\ = slide down
- = palm mute
~ = vibrato
B = bend
Related for The Siege tab