Song name
# A B C D E F G H I J K L M N O P Q R S T U V W X Y Z

Doomsword - Mcxix tab

Doomsword - MCXIX

Awesome epic song with a middle-east touch, enjoy.

Intro
D|-----------------------------------|
A|-----------------------------------|
F|-----------------------------------|
C|-10----10----10---12----10----10---| 2x
G|----00----00----0----00----00----0-|                                 
D|-----------------------------------|
PM all 0's

D|----------------------------------------------------------|
A|----------------------------------------------------------|
F|----------------------------------------------------------|
C|-9----9----9---10----9----9---9----9----9---6-----7-----9-|
G|---00---00---0----00---00---0---00---00---0----0-----0----|
D|----------------------------------------------------------|
PM all 0's

D|----------------------------------------------------------|
A|----------------------------------------------------------|
F|---------------------------------------11---8-----9----11-|
C|------------ending------------9----9----9---6-----7-----9-|
G|--------------------------------00---00-------------------|
D|----------------------------------------------------------|
PM all 0's


Verse 1 riff                       |>2nd time play without the 0's   
D|---------------------------------|---------------------------------|
A|---------------------------------|---------------------------------|
F|---------------------------------|---------------------------------|
C|-7----8----11----12----14---15---|-14----12----14----11----12----8-|
G|---00---00----00----00----0----0-|----00----00----00----00----00---|
D|---------------------------------|---------------------------------|
PM all 0's


Chorus riff 1
D|--------------------------------|
A|--------------------------------|
F|--------------------------------|
C|-----2~------3~-----7~/10--9--7-|
G|-00000~~-11111~-55555~/8---7--5-|
D|--------------------------------|
PM|****    ****   **** 


Chorus galloping riff
D|-----------------------------------------------------------------||-----------------------|
A|-----------------------------------------------------------------||-----------------------|
F|-----------------------------------------------------------------||-----------------------|
C|--------------------------------------------------------10--9--7-||-10--9--7--6--3--6--2~-|
G|-0-00-0-00-0-00-1-11-1-11-1-11-5-55-5-55-5-55-8-88-8-88-8---7--5-||-8---7--5--4--1--4--0~-|
D|-----------------------------------------------------------------||-----------------------|
PM| all single notes


Nine knights, one might part
D|-----------|
A|-----------|
F|-----------|
C|--2-2-2-2~-| repeat
G|--0-0-0-0~-|
D|-----------|
PM  * * * 


Pre-solo riff
D|--------------------------------------------------------------------|
A|--------------------------------------------------------------------|
F|--------------------------------------------------------------------|
C|--12----11----14----12----15---14---17----15----14---12----14----15-|
G|-----00----00----00----00----0----0----00----00----0----00----00----|
D|--------------------------------------------------------------------|
PM all 0's


Riff played under the solo
D|-------------------------------------------------|
A|-------------------------------------------------|
F|-2-----2-----2---2-----2-----2--6--7--3--6--0--3-|
C|-2-----2-----2---2-----2-----2--6--7--3--6--0--3-|
G|---0-0---0-0---0---0-0---0-0---------------------|
D|-------------------------------------------------|
PM   * *   * *   *   * *   * *

or

D|--------------------------------------------------|
A|--------------------------------------------------|
F|--------------------------------------------------|
C|--------------------------------------------------|
G|-7-----7-----7---7-----7-----7--11-12--8--11-5--8-|
D|-5-5-5-5-5-5-5-5-5-5-5-5-5-5-5--9--10--6--9--3--6-|
PM   * *   * *   *   * *   * * 

Ends with the "Nine knights, one might" thing.
Tap to rate this tab
# A B C D E F G H I J K L M N O P Q R S T U V W X Y Z