Song name
# A B C D E F G H I J K L M N O P Q R S T U V W X Y Z

Doomsword - Heathen Assault tab

Doomsword - Heathen Assault (Burn Jorvik to the ground)


Acoustic intro

   Am                              D             D5
D|-------------------------------------------2-----5-----2-------|
A|-----------1---------------1---------3---3---3------3------3---|
F|-----2---2---2-------2---2---2-----2---2-------2------2------2-|
C|---2---2-------2---2---2-------2-0-----------------------------|
G|-0---------------0---------------------------------------------|
D|---------------------------------------------------------------|

   Am                              D                D5
D|-----------0-------------------------------2------5-|
A|---------1---1-------------1---------3---3---3----3-|
F|-----2---------2-----2---2---2-----2---2-------2--2-|
C|---2---2-----------2---2-------2-0----------------0-|
G|-0---------------0----------------------------------|
D|----------------------------------------------------|


Acoustic Verse

"Take a look to the sea..."
   Am
D|-0-----0-----|-------0-----|
A|-1-------1---|---------1---|
F|-2---2-----2-|-----2-----2-|
C|-2-2---------|---2---------|
G|-0-----------|-0-----------|
D|-------------|-------------|

"...the sails, the waves are carrying..."
   D
D|-------2-----------2-------|
A|-----3---3-------3---3-----|
F|---2-------2---2-------2---|
C|-0-----------0-----------0-|
G|---------------------------|
D|---------------------------|

"...On Oooohhhh Ooohhhh..."
   Am                      F
D|-------1-----------1------------1-----------1-----|
A|---------2-----------2------------1-----------1---|
F|-----2-----2-----2-----2------------2-----------2-|
C|---2-----------2-------------3------------3-------|
G|-0-----------0-------------3------------3---------|
D|-------------------------1------------1-----------|

Heavy verse

D|-----------------------------|
A|-----------------------------|
F|-----------------------------|
C|-----------------------------|
G|-2-2-2-2-2-2-2-2-2-2-2-2-...-| 
D|-0-0-0-0-0-0-0-0-0-0-0-0-...-| palm mute gets lighter towards the end
   . . . . . . . . . . . . 


 "Take a look to the sky..."
D|---------------------|
A|---------------------|
F|---------------------|
C|---------------------|
G|-2-2-2-2-2-2-2-2-...-|
D|-0-0-0-0-0-0-0-0-...-|
   . . . . . . . .


 "...the air with spears to turn black this christian sun..."
D|------------------------------------------------------|
A|------------------------------------------------------|
F|------------------------------------------------------|
C|----------------12---12--12\10--10---10\9--9-----9\---|
G|-2-2-2-2-2-2-2--10---10--10\8---8----8-\7--7-----7\---|
D|-0-0-0-0-0-0-0----------------------------------------|
   . . . . . . .


        "Ooohh ooohh oooohhhh"
D|------------------------------------------|
A|------------------------------------------|
F|------------------------------------------|
C|--------4-----4----4\3------------4-----3-|
G|-2-2-2--2-----2----2\1------------2-----1-|
D|-0-0-0------0-----------0-0-0-0-0---0-0---|
   . . .      .           . . . . .   . .

Chorus

              "Burn!    Eng - land   to     the  ground!"
D|----------------------------------------------|
A|----------------------------------------------|
F|---------------9\-----12-----7-----11-----12--|
C|---------------7\-----10-----5-----9------10--|  
G|-0-00000-0-0-0----000----000---000----000-----|
D|----------------------------------------------|


  "Heeaatheeen! Assault"                         "Odin, watch me die"
D|-----------|                      D|---------------| 
A|-----------|                      A|---------------|
F|-9----7----|                      F|---------------|
C|-7----5----|     next time play > C|-7------5------|
G|-----------|                      G|-5------3-hold-|
D|-----------|                      D|---------------|

                                    
Acoustic again
D|---------------|
A|-------1-------|
F|-----2---2-----|then go back to the acoustic verse
C|---2-------2~--| 
G|-0-------------|
D|---------------|



This next heavy part brings a new riff:
D|-------------------------------------------------------|
A|-------------------------------------------------------|
F|-------------------------------------------------------|
C|-------------------------------------------------------|
G|-0-0-0-0-0-0-7-7-7-10-10-10-8--8--8--3-3-3-2-2-2-2-3-2-| all palm muted
D|-------------------------------------------------------|

D|-------------------------------------------------------|
A|-------------------------------------------------------|
F|-------------------------------------------------------|
C|-----------------------------10-----10-----7-----7-----|
G|-0-0-0-0-0-0-7-7-7-10-10-10--8------8------5-----5-----| palm mute all the single notes
D|-------------------------------------------------------|



This is played under the solo
D|-----------------------------------------------------------------------|
A|-----------------------------------------------------------------------|
F|-----------------------------------------------------------------------|
C|--------------2---------------2---------5-5-5---------7-7-7--7------5--|
G|-000000-0-0-0-0--000000-0-0-0-0--333333-3-3-3--555555-5-5-5--5--3-2-3--|
D|----------------------------------------------------------------1-0----|
   ...... . . .    ...... . . .    ......        ......


The solo begins here actually
D|--------------------------------------------------------------------------------------------|
A|--------------------------------------------------------------------------------------------|
F|--------------------------------------------------------------------------------------------|
C|--------------2---------------2---------5-5-5---------7-7-7--7------------------------------|
G|-000000-0-0-0-0--000000-0-0-0-0--333333-3-3-3--555555-5-5-5--5--------------3---------------|
D|---------------------------------------------------------------111111-1-1-1-1--000000-0-0-0-|
   ...... . . .    ...... . . .    ......        ......          ...... . . .    ...... . . .



  "Oooohhhh ooooooohhh..."
D|-------------------------------------|
A|-------------------------------------|
F|-------------------------------------|
C|-2--------5--------7--------10----9--|
G|-0--------3--------5--------8-----7--|
D|-------------------------------------|
Tap to rate this tab
 
# A B C D E F G H I J K L M N O P Q R S T U V W X Y Z