Song name
# A B C D E F G H I J K L M N O P Q R S T U V W X Y Z

Doomsword - For Those Who Died With Sword In Hand tab

Doomsword - For those who died with sword in hand


Main riff [
D#|-----------------------------------------|
A#|-----------------------------------------|
F#|-----------------------------------------|
C#|-2---------2---------2---------2---------|
G#|-2---------2---------2---------2---------|
D#|-0-0-0-0-0-0-0-0-0-0-0-0-0-0-0-0-0-0-0-0-|
PM   * * * *   * * * *   * * * *   * * * * 

D#|---------------------------------------|
A#|---------------------------------------|
F#|---------------------------------------|
C#|-5---------5---------5---------5--7--7-|
G#|-3-3-3-3-3-3-3-3-3-3-3-3-3-3-3-3--5--3-|
D#|---------------------------------------|
PM   * * * *   * * * *   * * * *

D#|-------------------------------------------------|
A#|-------------------------------------------------|
F#|-------------------------------------------------|
C#|-2---------2---------2---------2---------4--5--4-|
G#|-0-0-0-0-0-0-0-0-0-0-0-0-0-0-0-0-0-0-0-0-2--3--2-|
D#|-------------------------------------------------|
PM   * * * *   * * * *   * * * *   * * * * 
] End main riff


Pre chorus riff [
D#|---------------------------------------------|
A#|---------------------------------------------|
F#|---------------------------------------------|
C#|-10---------10---------10---------10---------|
G#|-8--8-8-8-8-8--8-8-8-8-8--8-8-8-8-8--8-8-8-8-|
D#|---------------------------------------------|
PM    * * * *    * * * *    * * * *    * * * * 

D#|-----------------------------------------------------|
A#|-----------------------------------------------------|
F#|-----------------------------------------------------|
C#|-9---------9---------9---------9---------10--12---16-|
G#|-7-7-7-7-7-7-7-7-7-7-7-7-7-7-7-7-7-7-7-7-8---10---14-|
D#|-----------------------------------------------------|
PM   * * * *   * * * *   * * * *   * * * * 

D#|-----------------------------------------|
A#|-----------------------------------------|
F#|-----------------------------------------|
C#|-9---------9---------9---------9---------|
G#|-7-7-7-7-7-7-7-7-7-7-7-7-7-7-7-7-7-7-7-7-|
D#|-----------------------------------------|
PM   * * * *   * * * *   * * * *   * * * * 
] End pre chorus riff

Chorus [
D#|--------------------------------------------------|
A#|--------------------------------------------------|
F#|--------------------------------------------------|
C#|-5----4----5--7--9--4------5----4----5--7-(7)--9~-|
G#|-3--0-2--0-3--5--7--2---0--3--0-2--0-3--5-(5)--7~-|
D#|--------------------------------------------------|
PM     *    *              *     *    *
] End chorus

Chords after 2nd chorus
D#|---------------------------|
A#|---------------------------|
F#|---------------------------|
C#|---------------------------|
G#|-9---9-10-7---7-9-5--4--2~-|
D#|-7---7-8--5---5-7-3--2--0~-|

Solo Riff[
D#|------------------------------------------|
A#|------------------------------------------|
F#|------------------------------------------|
C#|--12-12-x-x-12-12-x-x-12-12-x-x-12-12-x-x-|
G#|--10-10-x-x-10-10-x-x-10-10-x-x-10-10-x-x-|
D#|------------------------------------------|

D#|--------------------------------------------------------------------------|
A#|--------------------------------------------------------------------------|
F#|--------------------------------------------------------------------------|
C#|-8-x-x-8-8-x-x-8-8-x-x-8--10--8--5-5-x-x-5-5-x-x-5-5-x-x-5-5-x-x--7--8--7-|
G#|-6-x-x-6-6-x-x-6-6-x-x-6--8---6--3-3-x-x-3-3-x-x-3-3-x-x-3-3-x-x--5--6--5-|
D#|--------------------------------------------------------------------------|
] End riff (play a few times then its main riff again (still under the solo))

Then there's the chorus again and end with:

D#|----------------------------------------------------|
A#|----------------------------------------------------|
F#|----------------------------------------------------|
C#|------------------------------------------------9\--|
G#|-9---9-10-7--5--4---2----2222222222222222222222-7\--|
D#|-7---7-8--5--3--2---0----0000000000000000000000-0---|
Tap to rate this tab
# A B C D E F G H I J K L M N O P Q R S T U V W X Y Z