Song name
# A B C D E F G H I J K L M N O P Q R S T U V W X Y Z

Doors - Feast Of Friends tab

e-----------10-----------------------------11-10------------------------|
b--------------13-11-10--------------------------13-11-10-10--8-10-8----|
g-----------------------12-12--11-12-11---------------------------------|
d-----------------------------------------------------------------------|
a-----------------------------------------------------------------------|
e-----------------------------------------------------------------------|

e-15------15-------------------13-------13------------------------------|
b-----18------16-18-15/16-----------16-------15-16-13/15----------------|
g-----------------------------------------------------------------------|
d-----------------------------------------------------------------------|
a-----------------------------------------------------------------------|
e-----------------------------------------------------------------------|

                                      tr~~~~~~~~~~~~~~~~~~~~~~
e-10-----10-----------------10-10-11-----(10-11)-------------------------|
b-----15----13-15-11-13--------------------------------------------------|
g------------------------------------------------------------------------|
d------------------------------------------------------------------------|
a------------------------------------------------------------------------|
e------------------------------------------------------------------------|

e------------------------------------------------------------------------|
b-8-10-11-10-8---8-------------------------------------------------------|
g--------------11--10--------10-12-13-12-10---------------12-------------|
d-------------------------------------------13------10-13---12-----------|
a------------------------------------------------------------------------|
e------------------------------------------------------------------------|


e------------------------------------------------------------------------|
b------------------------------------------------------------------------|
g-----12-----------------------------------------------------------------|
d-8-12--10----10-12-13-12-10--------8-10-12-10-8-------------------------|
a---------------------------13-------------------12----12-13-15-13-12----|
e---------------------------------------------------------------------15-|
Tap to rate this tab
 
# A B C D E F G H I J K L M N O P Q R S T U V W X Y Z