Song name
# A B C D E F G H I J K L M N O P Q R S T U V W X Y Z

Doors - Roadhouse Blues Live tab

Artist: The Doors
Song: Roadhouse Blues Live
Album: The Best of The Doors
Tunning: Standard
Tabbed By: Indie Nation



 - () = Tied Note


Intro:

e|--------------------|-------------------|
B|--------------------|-------------------|
G|--------------------|-------------------|
D|--------------------|-------------------|
A|--------------------|-------------------|
E|--0-0-0-0-0-0-5h6h7-|-0-0-0-0-0-0-5h6h7-|

e|--------------------|--------------------|
B|--------------------|--------------------|
G|--------------------|--------------------|
D|--------------------|--------------------|
A|--------------5h6h7-|-------------5h6h7--|
E|--0-0-0-0-0-0-------|-0-0-0-0-0-0--------|

e|--------------------|-------------------|
B|--------------------|-------------------|
G|--------------------|-------------------|
D|--------------------|-------------------|
A|--------------------|-------------------|
E|--0-0-0-0-0-0-5h6h7-|-0-0-0-0-0-0-5h6h7-|

e|--------------------|--------------------|
B|--------------------|--------------------|
G|--------------------|--------------------|
D|--------------------|--------------------|
A|--------------5h6h7-|-------------5h6h7--|
E|--0-0-0-0-0-0-------|-0-0-0-0-0-0--------|

e|--------------------|-------------------|
B|--------------------|-------------------|
G|--------------------|-------------------|
D|--------------------|-------------------|
A|--------------------|-------------------|
E|--0-0-0-0-0-0-5h6h7-|-0-0-0-0-0-0-5h6h7-|

e|--------------------|--------------------|
B|--------------------|--------------------|
G|--------------------|--------------------|
D|--------------------|--------------------|
A|--------------5h6h7-|-------------5h6h7--|
E|--0-0-0-0-0-0-------|-0-0-0-0-0-0--------|




Verse:

e|--------------------|--------------------|
B|--------------------|--------------------|
G|--------------------|--------------------|
D|--------------------|--------------------|
A|--------------5h6h7-|-------------5h6h7--|
E|--0-0-0-0-0-0-------|-0-0-0-0-0-0--------|

e|--------------------|--------------------|
B|--------------------|--------------------|
G|--------------------|--------------------|
D|--------------------|--------------------|
A|--------------5h6h7-|-------------5h6h7--|
E|--0-0-0-0-0-0-------|-0-0-0-0-0-0--------|

e|-------------------------|--------------------|--------------------|
B|-------------------------|--------------------|--------------------|
G|--0--2p0h2-(2)p0----0----|--------------------|--------------------|
D|--0---------------2---2--|--------------------|--------------------|
A|-------------------------|--------------5h6h7-|-------------5h6h7--|
E|-------------------------|--0-0-0-0-0-0-------|-0-0-0-0-0-0--------|

e|--------------------|-------------------------|--------------------|
B|--------------------|-------------------------|--------------------|
G|--------------------|--0--2p0h2-(2)p0----0----|--------------------|
D|--------------------|--0---------------2---2--|--------------------|
A|--------------5h6h7-|-------------------------|--------------5h6h7-|
E|--0-0-0-0-0-0-------|-------------------------|--0-0-0-0-0-0-------|

e|------------------|-------------------|----------------------|----------------------|
B|------------------|-------------------|----------------------|----------------------|
G|------------------|-------------------|----------------------|-0--------------------|
D|--0----0---0----2-|--(2)-0-0------0---|----------------------|-0---2p0h2--(2)p0---0-|
A|---------2---2----|----------2--------|----------------0h1h2-|-----------------2----|
E|------------------|-----------------3-|-(3)b----0------------|----------------------|

e|--------------------|--7----7-7-7-6-\-7-|--7----7-7-7-6-\-7-|
B|-----5----5-5-5---5-|--5----5-5-5-4-\-5-|--5----5-5-5-4-\-5-|
G|-----7----7-7-7-6-7-|--7----7-5-5-4-\-7-|--7----7-7-7-6-\-7-|
D|-----6----6-6-6-5-6-|-------------------|-------------------|
A|-----7----7-7-7-6-7-|-------------------|-------------------|
E|--x-----------------|-------------------|-------------------|

e|--7---6---7----6-\-7-|----7---7-----6-\-7-|----7---7-----6-\-7-|
B|--5---4---5----4-\-5-|----5---5-----4-\-5-|----5---5-----4-\-5-|
G|--7---6---7----6-\-7-|----7---7-----6-\-7-|----7---7-----6-\-7-|
D|---------------------|--x-----------------|--x-----------------|
A|----5---5------------|--------------------|--------------------|
E|---------------------|--------------------|--------------------|

e|----7---7---x------|----------------------------|----7---7-----6-\-7-|
B|----5---5---x------|----------------------------|----5---5-----4-\-5-|
G|----7---7---x------|-0--------------------------|----7---7-----6-\-7-|
D|--x----------------|-0--2p0h2--(2)p0---0---0--2-|--------------------|
A|-------------0h1h2-|---------------------2------|--------------------|
E|-------------------|----------------------------|--x-----------------|

e|------7---7-----6-\-7-|--7---7---x-------|----------------------------|
B|------5---5-----4-\-5-|--5---5---x-------|----------------------------|
G|------7---7-----6-\-7-|--7---7---x-------|-0--------------------------|
D|--x-------------------|------------------|-0--2p0h2--(2)p0----------0-|
A|----------------------|------------0h1h2-|----------------------0h2---|
E|----------------------|------------------|----------------------------|

e|-----------------|----------------|--------------------|-----------------|
B|-----------------|----------------|--------------------|-----------------|
G|-----------------|----------------|--------------------|-----------------|
D|----0---0------2-|--0-----------2-|--------(2)p0---0---|-2-2-0-0---------|
A|--2---2---2------|----2-1p0-------|--------------2---2-|---------4-4-2-2-|
E|-----------------|------------0---|--------------------|-----------------|




Chorus:

e|----------------|---------------|-----------------|
B|----------------|---------------|-----------------|
G|----------------|---------------|-----------------|
D|---------2--4---|--5--4--2------|----------2--4---|
A|--0--3h4------0-|-----------3h4-|--0-0-3h4------0-|
E|----------------|---------------|-----------------|

e|-----------------|-----------------|----------------|
B|-----------------|-----------------|----------------|
G|-----------------|-----------------|----------------|
D|----5--5--2--4p2-|----------2--4---|--5--4--2---4p2-|
A|-----------------|--0-0-3h4------0-|----------0-----|
E|-----------------|-----------------|----------------|

e|----------------------|----------------------|
B|----------------------|----------------------|
G|--4-4-4-4-4-4-4-4-4-4-|--5----5----5----4----|
D|--4-4-4-4-4-4-4-4-4-4-|--5----5----5----4----|
A|--2-2-2-2-2-2-2-2-2-2-|--3----3----3----2----|
E|----------------------|----------------------|





Solo:


E|-----------------------------------------12-|
B|------12-12------12-12----------------------|
G|-14b16------14b16------14b16r14--(14)b16----|
D|--------------------------------------------|
A|--------------------------------------------|
E|--------------------------------------------|

e|-----------12----------12-------------12----------|
B|--------12----------12-------------12-------------|
G|--14b16-------14b16------14b16-------14b16r14--12-|
D|--------------------------------------------------|
A|--------------------------------------------------|
E|--------------------------------------------------|

e|-----------------------------------------------|
B|-------12-12-------12-12------12-12------12-12-|
G|-14b16-------14b16-------14b16------14b16------|
D|-----------------------------------------------|
A|-----------------------------------------------|
E|-----------------------------------------------|

e|--------------------------------------------------|
B|------12-12-----12-------12-12-12-------12--15b17-|
G|-14b16-----14b16---14b16----------14b16-----------|
D|--------------------------------------------------|
A|--------------------------------------------------|
E|--------------------------------------------------|

e|----------------------------|-------------------------15b17-|
B|-r15--15---12---------------|-------12----------------------|
G|--------------14b16r14p12---|-12-14----14b16r14p12----------|
D|-------------------------14-|----------------------14-------|
A|----------------------------|-------------------------------|
E|----------------------------|-------------------------------|

e|-15-12------12-------|-12-12-12-------12-12------12-12------12-12-|
B|------15b17----15b17-|----------15b17-------15b17------15b17------|
G|---------------------|--------------------------------------------|
D|---------------------|--------------------------------------------|
A|---------------------|--------------------------------------------|
E|---------------------|--------------------------------------------|

e|------12-12------12-12------12-12-------12-12-|
B|-15b17------15b17------15b17------15b17-------|
G|----------------------------------------------|
D|----------------------------------------------|
A|----------------------------------------------|
E|----------------------------------------------|

e|------12-12------12-12------12-12--------------|
B|-15b17------15b17------15b17------15b17r15--12-|
G|-----------------------------------------------|
D|-----------------------------------------------|
A|-----------------------------------------------|
E|-----------------------------------------------|

e|----------------------------------------------|
B|-------------12-12-------12-------12-------12-|
G|-14b16------------14b16----14b16----14b16-----|
D|----------------------------------------------|
A|----------------------------------------------|
E|----------------------------------------------|

e|--------------------------|----0-----0-----0-----0-|
B|--------------------------|------0h2---0h2---0h2---|
G|-14b16-----14p12----12----|-0h2--------------------|
D|-----------------14-------|------------------------|
A|--------------------------|------------------------|
e|--------------------------|------------------------|

e|-----0-----0-----0-----0-|-----0-----0-----0-----0-|
B|-0h2---0h2---0h2---0h2---|-0h2---0h2---0h2---0h2---|
G|-------------------------|-------------------------|
D|-------------------------|-------------------------|
A|-------------------------|-------------------------|
E|-------------------------|-------------------------|

e|-----0-----0-------|---------------------|----------------|
B|-0h2---0h2---0-----|---------------------|----------------|
G|-------------------|---2----0-------2h4--|---2p0---0------|
D|-------------------|-----------2---------|-------2--------|
A|-------------------|---------------------|-----------2----|
E|-------------------|---------------------|----------------|

e|-------------------|------------------|--------------------|
B|-----3-------------|------------------|--------------------|
G|-2\4---4/2p0---0---|-------0----------|--------------------|
D|-------------2-----|---0h2------2p0---|----2--1\2----2p0---|
A|-----------------0-|-2--------------2-|------------------2-|
E|-------------------|------------------|--------------------|




Bridge:

e|----------------------|
B|----------------------|
G|----------------------| x 33
D|--2----1\2----2p0-----|  
A|-------------------2--|
E|----------------------|

e|--------------------------|
B|----5----5----------------|
G|----7----7----------------|
D|----6----6----------------|
A|----7----7----------5h6h7-|
E|--x-----------------------|




Verse:

e|--------------------|--------------------|
B|--------------------|--------------------|
G|--------------------|--------------------|
D|--------------------|--------------------|
A|--------------5h6h7-|-------------5h6h7--|
E|--0-0-0-0-0-0-------|-0-0-0-0-0-0--------|

e|--------------------|--------------------|
B|--------------------|--------------------|
G|--------------------|--------------------|
D|--------------------|--------------------|
A|--------------5h6h7-|-------------5h6h7--|
E|--0-0-0-0-0-0-------|-0-0-0-0-0-0--------|

e|-------------------------|--------------------|--------------------|
B|-------------------------|--------------------|--------------------|
G|--0--2p0h2-(2)p0----0----|--------------------|--------------------|
D|--0---------------2---2--|--------------------|--------------------|
A|-------------------------|--------------5h6h7-|-------------5h6h7--|
E|-------------------------|--0-0-0-0-0-0-------|-0-0-0-0-0-0--------|

e|--------------------|-------------------------|--------------------|
B|--------------------|-------------------------|--------------------|
G|--------------------|--0--2p0h2-(2)p0----0----|--------------------|
D|--------------------|--0---------------2---2--|--------------------|
A|--------------5h6h7-|-------------------------|--------------5h6h7-|
E|--0-0-0-0-0-0-------|-------------------------|--0-0-0-0-0-0-------|

e|------------------|-------------------|----------------------|----------------------|
B|------------------|-------------------|----------------------|----------------------|
G|------------------|-------------------|----------------------|-0--------------------|
D|--0----0---0----2-|--(2)-0-0------0---|----------------------|-0---2p0h2--(2)p0---0-|
A|---------2---2----|----------2--------|----------------0h1h2-|-----------------2----|
E|------------------|-----------------3-|-(3)b----0------------|----------------------|

e|--------------------|--7----7-7-7-6-\-7-|--7----7-7-7-6-\-7-|
B|-----5----5-5-5---5-|--5----5-5-5-4-\-5-|--5----5-5-5-4-\-5-|
G|-----7----7-7-7-6-7-|--7----7-5-5-4-\-7-|--7----7-7-7-6-\-7-|
D|-----6----6-6-6-5-6-|-------------------|-------------------|
A|-----7----7-7-7-6-7-|-------------------|-------------------|
E|--x-----------------|-------------------|-------------------|

e|--7---6---7----6-\-7-|----7---7-----6-\-7-|----7---7-----6-\-7-|
B|--5---4---5----4-\-5-|----5---5-----4-\-5-|----5---5-----4-\-5-|
G|--7---6---7----6-\-7-|----7---7-----6-\-7-|----7---7-----6-\-7-|
D|---------------------|--x-----------------|--x-----------------|
A|----5---5------------|--------------------|--------------------|
E|---------------------|--------------------|--------------------|

e|----7---7---x------|----------------------------|----7---7-----6-\-7-|
B|----5---5---x------|----------------------------|----5---5-----4-\-5-|
G|----7---7---x------|-0--------------------------|----7---7-----6-\-7-|
D|--x----------------|-0--2p0h2--(2)p0---0---0--2-|--------------------|
A|-------------0h1h2-|---------------------2------|--------------------|
E|-------------------|----------------------------|--x-----------------|

e|------7---7-----6-\-7-|--7---7---x-------|----------------------------|
B|------5---5-----4-\-5-|--5---5---x-------|----------------------------|
G|------7---7-----6-\-7-|--7---7---x-------|-0--------------------------|
D|--x-------------------|------------------|-0--2p0h2--(2)p0----------0-|
A|----------------------|------------0h1h2-|----------------------0h2---|
E|----------------------|------------------|----------------------------|

e|-----------------|----------------|--------------------|-----------------|
B|-----------------|----------------|--------------------|-----------------|
G|-----------------|----------------|--------------------|-----------------|
D|----0---0------2-|--0-----------2-|--------(2)p0---0---|-2-2-0-0---------|
A|--2---2---2------|----2-1p0-------|--------------2---2-|---------4-4-2-2-|
E|-----------------|------------0---|--------------------|-----------------|





Chorus:

e|----------------|---------------|-----------------|
B|----------------|---------------|-----------------|
G|----------------|---------------|-----------------|
D|---------2--4---|--5--4--2------|----------2--4---|
A|--0--3h4------0-|-----------3h4-|--0-0-3h4------0-|
E|----------------|---------------|-----------------|

e|-----------------|-----------------|----------------|
B|-----------------|-----------------|----------------|
G|-----------------|-----------------|----------------|
D|----5--5--2--4p2-|----------2--4---|--5--4--2---4p2-|
A|-----------------|--0-0-3h4------0-|----------0-----|
E|-----------------|-----------------|----------------|

e|----------------------|--------------------|
B|----------------------|--------------------|
G|--4-4-4-4-4-4-4-4-4-4-|--4--4--5--6--7--8--|
D|--4-4-4-4-4-4-4-4-4-4-|--4--4--5--6--7--8--|
A|--2-2-2-2-2-2-2-2-2-2-|--2--2--3--4--5--6--|
E|----------------------|--------------------|

e|-----------------------------------------------|
B|--15b17--------15p12---------------------------|
G|---------------------14--14b16--14b16r14p12----|
D|--------------------------------------------14-|
A|-----------------------------------------------|
E|-----------------------------------------------|

e|------------------------------------------------||
B|--------7-\-9-/-7-------------------------------||
G|--12\---7-\-9-/-7-------------------------------||
D|--12\---6-\-9-/-6-------------------------------||
A|------------------------------------------------||
E|------------------------------------------------||
Tap to rate this tab
 
# A B C D E F G H I J K L M N O P Q R S T U V W X Y Z