Song name
# A B C D E F G H I J K L M N O P Q R S T U V W X Y Z

Doors - Awake tab

                                  the doors- awake



Tabbed by: chris
Email:voodoochild1787@yahoo.com

tuning- standard

e|-13~~~~-----|
B|-10~~~~-----|

1st solo:  
( ghost bend 1st note)
e|-----------------------18p16---------------------------------------------|
B|-(14)))13---15^^(17)---------18p16---------------------------------------|
G|-----------------------------------13~~~/13^(14)--20p18h20-22--16h18p16--|
D|-------------------------------------------------------------------------|
A|-------------------------------------------------------------------------|
E|-------------------------------------------------------------------------|

e|-----------------------------------------------|
B|-----------------------------------------------|
G|-14h16p14--12h14p12--10h12p10///---------------|
D|-----------------------------------------------|
A|-----------------------------------------------|
E|-----------------------------------------------|

  
e|--333-333-333--5555-----------|
B|--000-000-000--0000--7p5-7p5--|
G|--444-444-444--6666--6---6----|
D|--555-555-555--7777-----------|
A|------------------------------|
E|------------------------------|

2nd solo:
e|-----------------------------------------------|
B|-----------------------------------------------|
G|-8--10-----8--10--12----8--10--8--12-10-8------|
D|--------9----------------------------------9---|   repeat...
A|-----------------------------------------------|
E|-----------------------------------------------|


( )=  indicated pitch for bends
^= bend up
~= vibrato
p= pull off
h= hammer on
/= slide
Tap to rate this tab
 
# A B C D E F G H I J K L M N O P Q R S T U V W X Y Z