Song name
# A B C D E F G H I J K L M N O P Q R S T U V W X Y Z

Doors - Shamans Blues tab

The Doors
Shaman's Blues Guitar Solo
From The Album-The Soft Parade
Tabbed By:Hconley95

Standard Tuning

b-bend
~~-tremolo
/-slide
p-pull off
rb-release bend


                                     1/2         1/2
e-8-5------------8-5------------------5b---------------------|
B-8-5------------8-5---------------------5~~------7b---------|
G------7-5-----------7-5-----------------------------7~~-----|
D----------7-------------7-----------------------------------|
A------------0-----------------------------------------------|
E------------------------------------------------------------|

e------------------------------------------------------------|
B----7/13---16-13-16/18~~----------13^14rb13--11--------11~~-|
G-----------------------------------------------12p10-12-----|
D------------------------------------------------------------|
A------------------------------------------------------------|
E------------------------------------------------------------|

e------------------------------------------------------------|
B---11/15--14-15-14-15~~-------------------------------------|
G------------------------------------------------------------|
D------------------------------------------------------------|
A------------------------------------------------------------|
E------------------------------------------------------------|

This was my first tab.
I hope it was helpful.
I'll do the full song later.

Peace
Tap to rate this tab
# A B C D E F G H I J K L M N O P Q R S T U V W X Y Z