Song name
# A B C D E F G H I J K L M N O P Q R S T U V W X Y Z

Doors - People Are Strange tab

---------------------------------------------------------------------------
			     People Are Strange solo - The Doors
--------------------------------------------------------------------------
Tabbed by:epiphone805
Email:epiphone8o5@yahoo.com

Tuning:Standard
My first tab.I'm pretty sure it's 100%. Hope you like it.

e|--5bs---0-------------------------------------14b---12-------------------|
B|------------3p0-------0--1/12--14bp12--------------------15------12------|
G|-----------------2bs--------------------14-------------------14----------|
D|-------------------------------------------------------------------------|
A|-------------------------------------------------------------------------|
E|-------------------------------------------------------------------------|

e|----------------------------0-0---3-0------------------------------------|
B|-----------------------12---------------3--5b-5b-5b-----3h5p3p0----------|
G|-14bp12-------12--14---------------------------------4-------------2bs---|
D|----------14-------------------------------------------------------------|
A|-------------------------------------------------------------------------|
E|-------------------------------------------------------------------------|

e|-------------------------------------------------------------------------|
B|---------------0--------3------------------------------------------------|
G|-2p0-----0-2-------2/4------2/4---2--0-----------------------------------|
D|------2---------------------------------2--0--2--------------------------|
A|-------------------------------------------------------------------------|
E|-------------------------------------------------------------------------|


************************************

| /   slide up
| \   slide down
| h   hammer-on
| p   pull-off
| ~   vibrato
| +   harmonic
| x   Mute note
| b   Bend
| bs  Bend slow
Tap to rate this tab
# A B C D E F G H I J K L M N O P Q R S T U V W X Y Z