Song name
# A B C D E F G H I J K L M N O P Q R S T U V W X Y Z

Doors - La Woman tab

Here is the remix of it off the album  'The Very Best Of The Doors'. It is done in a 
rock/blues style. For the opening riff, hold fingers as if in a D chord. Pretty easy song 
you ask me.

key:
ho=hammer on
po=pull off
/=slide up
\=slide down


Opening Riff: use slight overdrive (you are going to have to experiment to see what 
on your amp)


---------12-12-13-13-12-12-----------9-9-10-10-9-9---------|
---13-13----------------13------10-10------------10--------|
-12---------------------12-----9-----------------9---------|
-----------------------------------------------------------|     *continued*
-----------------------------------------------------------|
-----------------------------------------------------------|


---------15-15-16-16-15-15------------12-12-13-13-12-12---]
---16-16----------------16-------13-13---------------13---]
-15---------------------15-----12--------------------12---]
----------------------------------------------------------]
----------------------------------------------------------]
----------------------------------------------------------]


repeat throughout song

breakdown riff at about 1:33 in song (use computerized flanger effect to get exactly but 
flanger will work fine)


---------------------------|
---------------------------|
---------------------------|
-2-2--2-2-2----------------|
-0-0--0-0-0----------------|
-------------0--0-3-0-3----|

---------------------------|
---------------------------|
---------------------------|
-2-2--2-2-2----------------|
-0-0--0-0-0----------------|
-------------0--0-3-0-3----|

---------------------------|
---------------------------|
---------------------------|
-2-2--2-2-2----------------|
-0-0--0-0-0----------------|
-------------0--0-3-0-3----|

---------------------------|
---------------------------|
---------------------------|
-2-2--2-2-2-----9\2--------|
-0-0--0-0-0-----7\2--------|
---------------------------|


yeah thats really it just improvise anything else
if you have any questions feel free to contact me at
theoriginalMaxman2@yahoo.com

happy playing!-Maxelaxel
Tap to rate this tab
 
# A B C D E F G H I J K L M N O P Q R S T U V W X Y Z