Song name
# A B C D E F G H I J K L M N O P Q R S T U V W X Y Z

Doors - Break On Through tab

The Doors

Break on Through


Intro/Verse

|---------------------------|-----------------------|
|---------------------------|-----------------------|
|---------------------------|-----------------------|
|---------------------------|-----------------------|
|-----/7-5----7-7----5-7~---|-----/7-5----7-7----5~-|
|---0-------7------7--------|---0-------7------7----|
  You know that day.....      Night devides the day


Bridge:

|---2--------2---------2--------2---|
|---3--------3---------3--------3---|
|---2--------2---------2--------2---|
|---0--------0---------0--------0---|
|-----------------------------------|
|-----------------------------------|
    Tried to run,      Tried to hide 


Chorus:

|----------------------------------------|----------------------------------|
|----------------------------------------|----------------------------------|
|----------------------0h2p0------------*|---------------------0h2p0--------|
|---------------0-1h2----------2---0--2--|--------------0-1h2---------2-----|
|--------0h1-2--------------------------*|-------0h1-2----------------------|
|---0-3----------------------------------|--0-3-----------------------------|
    Break on through to the other side      Break on through to the other side, yeah









Tap to rate this tab
# A B C D E F G H I J K L M N O P Q R S T U V W X Y Z