Song name
# A B C D E F G H I J K L M N O P Q R S T U V W X Y Z

Doors - Love Her Madly chords

Highlighted       Show chord diagrams
-------------------------------------------------------------------------
			     Love Her Madly - The Doors
-------------------------------------------------------------------------
Tabbed by:tom murphy

Tuning:standard

Am
Dont you love her madly, dont you need her badly
          D                     Am
Dont you love her ways, tell me what you say
          Am           C        F        D
Dont you love her madly, wanna be her daddy
          Am
Dont you love her face
          Am               E             Am
Dont you love her as shes walkin out the door
Am               E              Am
Like she did one thousand times before

          D                     Am
Dont you love her ways, tell me what you say
Am                          E           Am   E   Am
Dont you love her as shes walkin out the door

Dmaj7   D    Dsus    D    Dmaj7 (X3)  Dsus  D   Dmaj7  D
All your love (x4)

          G                      C
All your love is gone, So sing a lonely song
     A                       D          F  D  G   E  Am
Of a deep blue dream, Seven horses seem to be on the mark

Solo : Am

Hold Am chord shape throughout solo:

e|-----------------------------0-----0-----0---0---0--3--0---0--|
B|--1--0-1----1--0-1-----1-----1---3---1-----3---1---------3----|
G|--2------2---------2------2--2--------------------------------|
D|--2--------------------------2--------------------------------|
A|--0--------------------------0--------------------------------|
E|--------------------------------------------------------------|



e|--3--0---0---0--3--0---0--0-----0--3--0---0------5------------|
B|--1----3---3---------3-------3----------3----3---5------------|
G|--2----------------------------------------------5------------|
D|--2----------------------------------------------7------------|
A|--0----------------------------------------------0------------|
E|--------------------------------------------------------------|


Am    C            F      D
    Yeah, dont you love her
          Am              E               Am  E  Am
Dont you love her as shes walkin out the door

Dmaj7   D    Dsus    D    Dmaj7 (X3)  Dsus  D   Dmaj7  D
All your love (x3)                            Yeah..                      

         G                       C
All your love is gone, So sing a lonely song
      A                      D          F  D  G   E  Am 
Of a deep blue dream, Seven horses seem to be on the mark


************************************

| /   slide up
| \   slide down
| h   hammer-on
| p   pull-off
| ~   vibrato
| +   harmonic
| x   Mute note
| b   Bend
| pb  Pre-bend
| br  Bend release
| pbr Pre-bend release
| brb Bend release bend

************************************
Tap to rate this tab
 
# A B C D E F G H I J K L M N O P Q R S T U V W X Y Z