Song name
# A B C D E F G H I J K L M N O P Q R S T U V W X Y Z

Doors - Land Ho tab

drop D tuning


           "Land Ho!" by The Doors

intro
e|-------------------------------------------------------------|--------------------|
B|-------------------------------------------------------------|--------------------|
G|-------------------------------------------------------------|--------------------|
D|---0----9----7----4----0----9----7----4----0----9----7----4--|---0--4--5--6--7----|
A|-------------------------------------------------------------|--------------------|
D|-0----9----7----4----0----9----7----4----0----9----7----4----|--0--4--5--6--7-----|


e|-------------------------------------------------------------|----------------|
B|-------------------------------------------------------------|----------------|
G|-------------------------------------------------------------|----------------|
D|---0----9----7----4----0----9----7----4----0----9----7----4--|--4/--0--0--0---|
A|-------------------------------------------------------------|----------------|
D|-0----9----7----4----0----9----7----4----0----9----7----4----|--4/--0--0--0---|


Grandma loved a sailor, who sailed the frozen sea
e|-------------------------------------------------------------|--------------------|
B|-------------------------------------------------------------|--------------------|
G|-------------------------------------------------------------|--------------------|
D|---0----9----7----4----0----9----7----4----0----9----7----4--|---0--4--5--6--7----|
A|-------------------------------------------------------------|--------------------|
D|-0----9----7----4----0----9----7----4----0----9----7----4----|--0--4--5--6--7-----|

Grandpa was that whaler and he took me on his knee 
e|-------------------------------------------------------------|----------------|
B|-------------------------------------------------------------|----------------|
G|-------------------------------------------------------------|----------------|
D|---0----9----7----4----0----9----7----4----0----9----7----4--|--4/--0--0--0---|
A|-------------------------------------------------------------|----------------|
D|-0----9----7----4----0----9----7----4----0----9----7----4----|--4/--0--0--0---|

He said: "Son, I'm going crazy from livin' on the land
e|-------------------------------------------------------------|--------------------|
B|-------------------------------------------------------------|--------------------|
G|-------------------------------------------------------------|--------------------|
D|---0----9----7----4----0----9----7----4----0----9----7----4--|---0--4--5--6--7----|
A|-------------------------------------------------------------|--------------------|
D|-0----9----7----4----0----9----7----4----0----9----7----4----|--0--4--5--6--7-----|

Got to find my shipmates and walk on foreign sands" 
e|-------------------------------------------------------------|
B|-------------------------------------------------------------|
G|-------------------------------------------------------------|
D|---0----9----7----4----0----9----7----4----0----9----7----4--|
A|-------------------------------------------------------------|
D|-0----9----7----4----0----9----7----4----0----9----7----4----|


e|--3--3-3--0~~~--2~~~--3--3-3--0~~~-----|---------------------------------------------------|
B|--3--3-3--0~~~--3~~~--3--3-3--0~~~-----|---------------------------------------------------|
G|--0--0-0--0~~~--2~~~--0--0-0--0~~~-----|---------------------------------------------------|
D|--0--0-0--2~~~--------0--0-0--2~~~-----|--5--5--5--5--4--4--4--4--2--2--2--2--9--9--9--9---|
A|---------------------------------------|--5--5--5--5--4--4--4--4--2--2--2--2--9--9--9--9---|
D|---------------------------------------|--5--5--5--5--4--4--4--4--2--2--2--2--9--9--9--9---|

This old man was graceful with silver in his smile 
e|-------------------------------------------------------------|--------------------|
B|-------------------------------------------------------------|--------------------|
G|-------------------------------------------------------------|--------------------|
D|---0----9----7----4----0----9----7----4----0----9----7----4--|---0--4--5--6--7----|
A|-------------------------------------------------------------|--------------------|
D|-0----9----7----4----0----9----7----4----0----9----7----4----|--0--4--5--6--7-----|

He smoked a briar pipe and he walked four country miles 
e|-------------------------------------------------------------|----------------|
B|-------------------------------------------------------------|----------------|
G|-------------------------------------------------------------|----------------|
D|---0----9----7----4----0----9----7----4----0----9----7----4--|--4/--0--0--0---|
A|-------------------------------------------------------------|----------------|
D|-0----9----7----4----0----9----7----4----0----9----7----4----|--4/--0--0--0---|

Singing songs of shady sisters and old time liberty 
e|-------------------------------------------------------------|--------------------|
B|-------------------------------------------------------------|--------------------|
G|-------------------------------------------------------------|--------------------|
D|---0----9----7----4----0----9----7----4----0----9----7----4--|---0--4--5--6--7----|
A|-------------------------------------------------------------|--------------------|
D|-0----9----7----4----0----9----7----4----0----9----7----4----|--0--4--5--6--7-----|

Songs of love and songs of death and songs to set men free 
e|-------------------------------------------------------------|
B|-------------------------------------------------------------|
G|-------------------------------------------------------------|
D|---0----9----7----4----0----9----7----4----0----9----7----4--|
A|-------------------------------------------------------------|
D|-0----9----7----4----0----9----7----4----0----9----7----4----|

e|--3--3-3--0~~~--2~~~--3--3-3--0~~~-----|------------------------------------|
B|--3--3-3--0~~~--3~~~--3--3-3--0~~~-----|------------------------------------|
G|--0--0-0--0~~~--2~~~--0--0-0--0~~~-----|------------------------------------|
D|--0--0-0--2~~~--------0--0-0--2~~~-----|--5-5-5-5-5-5-5-5-4-4-4-4-4-4-4-----|
A|---------------------------------------|--5-5-5-5-5-5-5-5-4-4-4-4-4-4-4-----|
D|---------------------------------------|--5-5-5-5-5-5-5-5-4-4-4-4-4-4-4-----|

chords
    Em          D           E           D 
e|--0--0--0--0--------------0--0--0--0----------------------|
B|--0--0--0--0--3--3--3--3--0--0--0--0--3--3--3--3----------|
G|--0--0--0--0--2--2--2--2--0--0--0--0--2--2--2--2----------|
D|--2--2--2--2--0--0--0--0--2--2--2--2--0--0--0--0----------|
A|--2--2--2--2--0--0--0--0--2--2--2--2--0--0--0--0----------|
D|--2--2--2--2--0--0--0--0--2--2--2--2--0--0--0--0----------|
     
I've {Em}got three [D] ships and [Em] sixteen [D] men 

A [E]course for [D] ports [Em] unread [D]

I'll [Em] stand at [D] mast, let [Em] north winds [D] blow till [Em] half of [D] us are [B7] dead 

Land ho! 


e|-------------------------------------------------------------|--------------------|
B|-------------------------------------------------------------|--------------------|
G|-------------------------------------------------------------|--------------------|
D|---0----9----7----4----0----9----7----4----0----9----7----4--|---0--4--5--6--7----|
A|-------------------------------------------------------------|--------------------|
D|-0----9----7----4----0----9----7----4----0----9----7----4----|--0--4--5--6--7-----|

Well, if I get my hands on a dollar bill gonna buy a bottle and drink my fill 
e|-------------------------------------------------------------|----------------|
B|-------------------------------------------------------------|----------------|
G|-------------------------------------------------------------|----------------|
D|---0----9----7----4----0----9----7----4----0----9----7----4--|--4/--0--0--0---|
A|-------------------------------------------------------------|----------------|
D|-0----9----7----4----0----9----7----4----0----9----7----4----|--4/--0--0--0---|

If I get my hands on a number five gonna skin that little girl alive 
e|-------------------------------------------------------------|--------------------|
B|-------------------------------------------------------------|--------------------|
G|-------------------------------------------------------------|--------------------|
D|---0----9----7----4----0----9----7----4----0----9----7----4--|---0--4--5--6--7----|
A|-------------------------------------------------------------|--------------------|
D|-0----9----7----4----0----9----7----4----0----9----7----4----|--0--4--5--6--7-----|

If I get my hand on a number two come back home and marry you 
e|-------------------------------------------------------------|----------------|
B|-------------------------------------------------------------|----------------|
G|-------------------------------------------------------------|----------------|
D|---0----9----7----4----0----9----7----4----0----9----7----4--|--4/--0--0--0---|
A|-------------------------------------------------------------|----------------|
D|-0----9----7----4----0----9----7----4----0----9----7----4----|--4/--0--0--0---|
continue riff until fade out.


and thats all! yay! another one of my favorite doors songs, i hope this helps
-Bertman! (the toast)
Tap to rate this tab
 
# A B C D E F G H I J K L M N O P Q R S T U V W X Y Z