Song name
# A B C D E F G H I J K L M N O P Q R S T U V W X Y Z

Doors - Crawling King Snake tab

The Doors
Crawling King Snake
from the album L.A. Woman

----------------------------------------------------|
----------------------------------------------------|
------02hp0h2p0----------------0h2p0h2p0------------|
----------------------------------------------------|
---------------------7/3-0--------------------7/3-0-|
--0-0-----------0-0--------0-0-----------0-0--------|

----------------------------------------------------|
----------------------------------------------------|
------0h2p0h2p0----------------0h2p0h2p0------------|
--------------------------------------------7/3-0---|
---------------------7/3-0--------------------------|
--0-0-----------0-0--------0-0-----------0-0--------|

----------------------------------------------------|
----------------------------------------------------|
------02hp0h2p0----------------0h2p0h2p0------------|
----------------------------------------------------|
---------------------7/3-0--------------------7/3-0-|
--0-0-----------0-0--------0-0-----------0-0--------|
well i'm the crawlin king snake and the room i'm in

----------------------------------------------------|
----------------------------------------------------|
------0h2p0h2p0----------------0h2p0h2p0------------|
--------------------------------------------7/3-0---|
---------------------7/3-0--------------------------|
--0-0-----------0-0--------0-0-----------0-0--------|

--3-------------------------3-3--3-3-3-3-3-3-3-3--3----------|
--0-------------------------0-0--0-0-0-0-0-0-0-0--0----------|
--0-------------------------0-0--0-0-0-0-0-0-0-0--0----------|
--0-------------------------0-0--0-0-0-0-0-0-0-0--0----------|
--2-------------------------2-2--2-2-2-2-2-2-2-2--2----------|
--3-------------------------3-3--3-3-3-3-3-3-3-3--3----------|
  I'm the crawlin king snake    and the room i'm in

----------------------------------------------------|
----------------------------------------------------|
------02hp0h2p0----------------0h2p0h2p0------------|
----------------------------------------------------|
---------------------7/3-0--------------------7/3-0-|
--0-0-----------0-0--------0-0-----------0-0--------|

-3-3-3-3-3-3-3-3-3-3-3-3-3-3-3-3-3-3-3-3-3-3-3--3----------|
-0-0-0-0-0-0-0-0-0-0-0-0-0-0-0-0-0-0-0-0-0-0-0--0----------|
-0-0-0-0-0-0-0-0-0-0-0-0-0-0-0-0-0-0-0-0-0-0-0--0----------|
-0-0-0-0-0-0-0-0-0-0-0-0-0-0-0-0-0-0-0-0-0-0-0--0----------|
-2-2-2-2-2-2-2-2-2-2-2-2-2-2-2-2-2-2-2-2-2-2-2--2----------|
-3-3-3-3-3-3-3-3-3-3-3-3-3-3-3-3-3-3-3-3-3-3-3--3----------|
ain't gonna go messin with my maid gonna use her for myself

----------------------------------------------------|
----------------------------------------------------|
------02hp0h2p0----------------0h2p0h2p0------------|
----------------------------------------------------|
---------------------7/3-0--------------------7/3-0-|
--0-0-----------0-0--------0-0-----------0-0--------|

----------------------------------------------------|
----------------------------------------------------|
------02hp0h2p0----------------0h2p0h2p0------------|
----------------------------------------------------|
---------------------7/3-0--------------------7/3-0-|
--0-0-----------0-0--------0-0-----------0-0--------|
caught me crawlin baby window grass is very high

----------------------------------------------------|
----------------------------------------------------|
------02hp0h2p0----------------0h2p0h2p0------------|
----------------------------------------------------|
---------------------7/3-0--------------------7/3-0-|
--0-0-----------0-0--------0-0-----------0-0--------|
keep   on   crawling     to the     day i die


that's pretty much the whole song
except for the solo ehich is around the 8th and 10th frets
Tap to rate this tab
# A B C D E F G H I J K L M N O P Q R S T U V W X Y Z