Doors - Wild Child tab

-----------------------------------------------------------------------------
			     Wild Child - The Doors
-----------------------------------------------------------------------------
Tabbed by: Darel13712
Email: darel142857@gmail.com

Tuning: Standard (It's originally played in open G or something like that,
 but i don't like to retune my guitar so i tabed it in normal tuning.
 Main riff in the begining is played one octave down so if you use another
 tuning or have something like whammy then play it so.)

Note: You should use slide to sound as recorded. Especialy in solo.


    Main Riff  - repeat n times| 0:30 - Verse      ...And back to riff again
e|----------------------------:|--------------------------------------------|
B|----------------------------:|----5--5--5\----4--4--4\--------------------|
G|-----------3~---------------:|---6--6--6-----5--5--5----5p3-5p3-5p3-5p3---|
D|----5-5---------5555---3----:|--7--7--7-----6--6--6--------5---5---5---5--|
A|-------------------------5--:|--------------------------------------------|
E|----------------------------:|--------------------------------------------|

 1:14 - Solo
e|--------------------------------------------------------------------------|
B|--------------------------------------------------------------------------|
G|---5-5-5-5~~5-3----------5-5-5-3-5-3-------5p3-5p3-5p3-5p3--5-3-----------|
D|-----------------5-------------------5--------5---5---5---5---------------|
A|--------------------------------------------------------------------------|
E|--------------------------------------------------------------------------|

e|------3-3----3-----------------12~-------------------------/15------------|
B|-----------6---------------/13~---13~11~------------/11-/13---/13---------|
G|----------------------------------------12~------/12-------------/12\-----|
D|---5-----------555-5--------------------------/10-------------------------|
A|--------------------------------------------------------------------------|
E|--------------------------------------------------------------------------|

e|------------------------------------10-10-10--10--8---10------------------|
B|--12-12-12--12--10--12--------------12-12-12--12--10--12------------------|
G|------------------------444-------------------------------444-4-----------|
D|--------------------------------------------------------------------------|
A|--------------------------------------------------------------------------|
E|--------------------------------------------------------------------------|

 Let Ring
e|-------1----------1---------1-----------3-----------3----------3-2--------|
B|--3----------3-----------3----4---5------------5-----------5--------------|
G|--------------------------------------------------------------------------|
D|--------------------------------------------------------------------------|
A|--------------------------------------------------------------------------|
E|--------------------------------------------------------------------------|

e|-------1----------1---------1-----------3-----------3----------/12-12-11--|
B|--3----------3-----------3----4---5------------5-----------5--------------|
G|--------------------------------------------------------------------------|
D|--------------------------------------------------------------------------|
A|--------------------------------------------------------------------------|
E|--------------------------------------------------------------------------|

e|-------1----------1---------1---------------------------------------------|
B|--3----------3-----------3----4/------5--5--5\----4--4--4\----------------|
G|-------------------------------------6--6--6-----5--5--5------------------|
D|------------------------------------7--7--7-----6--6--6----------5--------|
A|--------------------------------------------------------------------------|
E|--------------------------------------------------------------------------|

  Solo - 1:59
e|--------------------------------------------------------------------------|
B|---14~---------------14~----------15~~----18~--15~---------18~-15~--------|
G|--------15~---12~~~-------15~--12~----------------12~-15~~---------12~-15~|
D|--------------------------------------------------------------------------|
A|--------------------------------------------------------------------------|
E|--------------------------------------------------------------------------|

e|--------------------------------------------------------------------------|
B|---14~13~-------------14~13~---------15~14~-------------------------------|
G|----------15~-12~~~---------15~-12~--------15~-12~------------12~-15~~12--|
D|---------------------------------------------------12~12~--12~~-----------|
A|--------------------------------------------------------------------------|
E|--------------------------------------------------------------------------|

e|--------------------------------------------------------------------------|
B|---18~-15~-------------------14~-13~--------14~-13~---------14~-13~-------|
G|------------15~---12~---------------12~-------------12-12~~--------12~12~-|
D|-----------------------12~----------------12~-----------------------------|
A|--------------------------------------------------------------------------|
E|--------------------------------------------------------------------------|



************************************

| /   slide up
| \   slide down
| h   hammer-on
| p   pull-off
| ~   vibrato
| +   harmonic
| x   Mute note
| b   Bend
| pb  Pre-bend
| br  Bend release
| pbr Pre-bend release
| brb Bend release bend

************************************
Tap to rate this tab
 
# A B C D E F G H I J K L M N O P Q R S T U V W X Y Z