Song name
# A B C D E F G H I J K L M N O P Q R S T U V W X Y Z

Doors - Spy tab

Legend:
b=bend
u=un-bend
h=hammer-on
__=let it ring



intro:
1|-------7-----12------|
2|---------8b--------8b|
3|-----------9----9----| X6
4|---------------------|
5|---------------------|
6|---------------------|
verse:
1|-----------------------------------------|
2|---------7-9b-9-7-9-7----------7-9b__9u-7|
3|-----7h9-------------------7h9-----------|
4|---7---------------------7---------------|
5|-----------------------------------------|
6|-----------------------------------------|
chorus:
1|---3---3---0------------------|
2|---3---2---0------------------|
3|---0---3---0---------0h2-0----|
4|---0---0---2-----0---------2-2|
5|---2---0---2---2---2----------|
6|---3---0---0------------------|

Tap to rate this tab
 
# A B C D E F G H I J K L M N O P Q R S T U V W X Y Z