Song name
# A B C D E F G H I J K L M N O P Q R S T U V W X Y Z

Doors - We Could Be So Good Together chords

Highlighted       Show chord diagrams
An improvement of the other "We Could Be so Good Together" tab I saw
floating around. Once I work out the whole solo I'll post a separate tab for
 it.

~Charlie W.

Intro theme:

e|--------------------------------|
b|--------------------------------|
g|--------------------------------|
d|-------5---3------3-------------|
a|--------------5----------3------|              X4
E|--3-------------------6---------|


We could be so good together
Ya, so good together
We could be so good together
Ya, we could, I know we could


Am 			G                          Am
Tell you lies, Tell you wicked lies

Am			G			   Am
Tell you lies, Tell you wicked lies



D                                                         Am
Tell you 'bout the world that we'll invent
D                                                         Am
Wanton world without lament
G          G,G             G
Enterprise, expedition
Am
Invitation and invention



e|-----------------------------------|
b|-----------------------------------|
g|-----------------------------------|  play 4x, same as
d|-------7---5-------5---------------|          above
a|---------------7-----------5-------|
E|--5--------------------8-----------|

Ya, so good together
Ah, so good together
We could be so good together
Ya, we could, know we could

Alright!

Am G

Bm             A                                 Bm
Tell you lies, tell you wicked lies

Bm			A			 Bm
Tell you lies, tell you wicked lies



E                                                  Bm
The time you wait subtracts the joy
E                                                  Bm
Beheads the angels you destroy
A               A,A             A
Angels fight, angels cry
F#m
Angels dance and angels die



e|---------------------------------|
b|---------------------------------|
g|---------------------------------|
d|------9---7-------7--------------| 4x
a|--------------9----------7-------|
E|--7------------------10----------|


Ya, so good together
Ah, but so good together
We could be so good together
Ya, we could, know we could

e|---------------------------------|
b|---------------------------------|
g|---------------------------------|
d|------9---7-------7--------------| 4x
a|--------------9----------7-------|
E|--7------------------10----------|
Tap to rate this tab
 
# A B C D E F G H I J K L M N O P Q R S T U V W X Y Z