Song name
# A B C D E F G H I J K L M N O P Q R S T U V W X Y Z

Doors - Spy tab

e-7------12----------------|
b--b8-----------b8---------|
g-----9-----9--------------|   This is the main riff
d--------------------------|
a--------------------------|
E--------------------------|

after 4 or 5 times main riff then

e-----------------------------------------------------------|
b------------5-b7-75h7p5-----------5-b7-b7-5----------------|
g-------6----------------------6----------------------------|   Then it goes
d---7----------------------7--------------------------------|   back to the
a-----------------------------------------------------------|   main riff
E-----------------------------------------------------------|

then the chords G D E and finally(after the chord E):

e-------------------|
b-------------------|
g---------b2--0-----| 
d----0----------2---| 
a--2---2------------|
E-------------------|


this is my first tab, i suggest to listen the song to uncerstand where and how 
many times put all the riff above!
Tap to rate this tab
 
# A B C D E F G H I J K L M N O P Q R S T U V W X Y Z