Song name
# A B C D E F G H I J K L M N O P Q R S T U V W X Y Z

Doors - Riders On The Storm tab

-------------------------------------------------------------------------------
                             RIDERS ON THE STORM - THE DOORS
-------------------------------------------------------------------------------
Tabbed by:  Steve Dell
E-mail:  stevedell@hotmail.co.uk
Find a performance of this arrangement at www.youtube.com/key2kingdom

Tuning: Standard.

e|-----------------------------------12--------------------------------------|
B|--------------------------------12----12+----------------------------------|
G|------------------------------9--------------------------------------------|
D|----------------------------9----------------------------------------------|
A|--2---2-----4-----2---2---0--------------2---2-----4-----2---2-------------|
E|0---3---0-5---5-0---3---0-------------0----3---0-5---5-0---3---0-----------|

e|3h5p3p2---0-3-2-------0---------------------7---5--------------------------|
B|--------3---------3---------------------------8---7h8-5h7---5--------------|
G|----------------------------------------------------------7---6h7-4h6---4--|
D|----------------------------------------------------------------------7---5|
A|0-------------2---2-----4-----2---2-----4----------------------------------|
E|------------0---3---0-5---5-0---3---0-5---5-0------------------------------|

e|------------------------------   (-----------------)
B|------------------------------   (-----------------)
G|------------------------------   (-----------------)
D|h7-4h5-2h4-0h2---0----------0-   (-2-----------0---)
A|---------------4---2h4-0-4----   (---2---2-----4---)
E|------------------------------   (-0---3---0-5---5-) (play x 4) 

e|0-0-3---0-----------------------0-0-3---0----------------------0-----------|
B|------3-------------------------------3------------------------------------|
G|---------------------------------------------------------------------------|
D|----------------2---2-0-2-----------------------2--2-2-0-2-----------------|
A|--2---2-----4-----2---2---0-4-0---2---2-----4-----2----2---0-4-------------|
E|0---3---0-5---5-0---3---0-------0---3---0-5---5-0----3---0-----0-----------|

e|5-5-5---5---------------------0-0-3-3-0-------------------0-0--------------|
B|5-----8-7---8-8--8-10--10--------------------------------------------------|
G|5-------7---9-9--9-10--10--------------------------------------------------|
D|---------------------------12----------------------------------------------|
A|0-------0---0------0-------0----2---2-----4-----2---2-----4----------------|
E|-----------------8------------0---3---0-5---5-0---3---0-5------------------|

e|5-5-5-3-5--5--3-3-3-0-0---0-0-3-3-0-------------------0--------------------|
B|3----------3--1------------------------------------------------------------|
G|2----------2--0-----------------------------------------7------------------|
D|0----------0---------------------------------------------------------------|
A|--------------3-------------2---2-----4-----2---2-----4--------------------|
E|--------------------------0---3---0-5---5-0---3---0-5---5------------------|

e|0-0-3-3-0-------------------0---0-0-3-3-0---------------------0------------|
B|---------------------------------------------------------------------------|
G|------------------------------7--------------------------------------------|
D|---------------------------------------------------------------------------|
A|--2---2-----4-----2---2-----4-----2---2-----4-----2---2-----4--------------|
E|0---3---0-5---5-0---3---0-5---5-0---3---0-5---5-0---3---0-5---0------------|


 
e|5-5-5---5---------------------0-0-3-3-0-------------------0-0--------------|
B|5-----8-7---8-8--8-10--10--------------------------------------------------|
G|5-------7---9-9--9-10--10--------------------------------------------------|
D|---------------------------12----------------------------------------------|
A|0-------0---0------0-------0----2---2-----4-----2---2-----4----------------|
E|-----------------8------------0---3---0-5---5-0---3---0-5------------------|

e|5-5-5-3-5--5--3-3-3-0-0---0-0-3-3-0----------------------------------------|
B|3----------3--1------------------------------------------------------------|
G|2----------2--0------------------------------------------------------------|
D|0----------0---------------------------------------------------------------|
A|--------------3-------------2---2-----4-----2---2-----4--------------------|
E|--------------------------0---3---0-5---5-0---3---0-5---5------------------|


e|----------------------------------|
B|0---0---------0-------------------|
G|------------0---------------------|
D|--------7-------------------------|
A|--2---2-----4-----2---2-----4-----|
E|0---3---0-5---5-0---3---0-5---5---|  play 4 times, end with Em


************************************

| /   slide up
| \   slide down
| h   hammer-on
| p   pull-off
| ~   vibrato
| +   harmonic
| x   Mute note
| b   Bend
| pb  Pre-bend
| br  Bend release
| pbr Pre-bend release
| brb Bend release bend

************************************
Tap to rate this tab
# A B C D E F G H I J K L M N O P Q R S T U V W X Y Z