Song name
# A B C D E F G H I J K L M N O P Q R S T U V W X Y Z

Doors - The Ghost Song tab

This is my first tab, dont expect much.

b=bend
br=bend release
h=hammer-on
p=pull off
/=slide
~=vibrato
solo (1:02)

e|----------------------------------------------17p14-----------------------|
b|-----(14)br12----------15b17------------------------15/12-----------------|
g|----------------------------------------------------------11~~///---------|
d|--------------------------------------------------------------------------|
a|--------------------------------------------------------------------------|
e|--------------------------------------------------------------------------|


e|---------------------------------------------------------------------------|
b|-----------------------------14b15br14-12b14br12-10b12br10-7b8br7~~///-----|
g|-14b16---(16)br15p12--15b17------------------------------------------------|
d|---------------------------------------------------------------------------|
a|---------------------------------------------------------------------------|
e|---------------------------------------------------------------------------|

Riff 1
e|----------------------------------------------------------|
b|--12--12-----12--12-----12--12------------14-14-14-14-----|
g|--12--12-----12--12-----12--12------------14-14-14-14-----|  X4
d|--12--12-----12--12-----12--12------------14-14-14-14-----|
a|----------------------------------------------------------|
e|----------------------------------------------------------|


Riff 2
e|-----------------------------------------------------------|
b|-----------------------------------------------------------|
g|--------------------11-------------------------------------|
d|--12--14------12h14----------12--14-----12----16h12--------| X4
a|----------12-----------------------------------------14h12-|
e|-----------------------------------------------------------|


Riff 3
e|---------------------------------------14-14-14-14---------|
b|--12x14-----12x14-14----------12x14----14-14-14-14---------|
g|--12x14-----12x14-14----------12x14----14-14-14-14---------| x8
d|-----------------------------------------------------------|
a|-----------------------------------------------------------|
e|-----------------------------------------------------------|

Riff 2  x2


Riff 4
e|--------------------------------------------------------------------------|
b|--------------------10----------------------------------------------------|
g|--10--12-----10h12---------10--12---10----14p10---------------------------|
d|----------12--------------------------------------12p10-------------------|
a|--------------------------------------------------------------------------|
e|--------------------------------------------------------------------------|


Riff 5
e|--------------------------------------------------------------------------|
b|--10h11--14---10h11p10----------------------------------------------------|
g|-----------------------10-------------------------------------------------|
d|--------------------------10----------------------------------------------|
a|--------------------------------12b14--10--12b14-12b14-12b14br12-10-12b14-|
e|--------------------------------------------------------------------------|


e|--------------------------------------------------------------------------|
b|---------14---10h11p10----------------------------------------------------|
g|-9h10------------------10-----(14)br12--10--(14)br12p10-12b14-12-10h12p10-|
d|--------------------------10----------------------------------------------|
a|--------------------------------------------------------------------------|
e|--------------------------------------------------------------------------|

I'm too lazy to try the other solo, so i'll leave it at this. Enjoy ;)
Tap to rate this tab
# A B C D E F G H I J K L M N O P Q R S T U V W X Y Z