Song name
# A B C D E F G H I J K L M N O P Q R S T U V W X Y Z

Doors - Break On Through tab

Song: Break on through (to the other side)
Artist: The Doors
Album: The Doors (1967)




		play a few times, then start singing 
|-------------------------------------------|
|-------------------------------------------|   the lyrics
|-------------------------------------------|
|-----2-0--2-2---0---------2-0--2-2---0-----|
|--------------2---14\--------------2---14\-|
|-(0)------------------(0)------------------|

You know the day destroys the night, 
Night divides the day

|-2------2--------2------2----|
|-3------3--------3------3----|
|-2------2--------2------2----|	<------	riff 1
|-0------0--------0------0----|
|-----------------------------|
|-----------------------------|

Try to run      Try to hide


|------------------------------|	x 3	(play with lyrics)
|------------------------------|
|-----------------0h2p0--------|
|-----------0h1h2-------2--0-2-|
|-----0h1h2--------------------|
|-0-3--------------------------|

Break on through to the other side

Break on through to the other side

Break on through to the other side



(play the verse format again like it is above with these lyrics)
					            |
		------------------------------------)				
                |
	        \/
Chased  our pleasures here,

Dug our treasures there

But can you still recall

The time we cried?

Break on through to the other side

Break on through to the other side

Break on through to the other side


Key board solo arr. for guitar

|-10--10--10-10--10-10-10-10-10-------7-7-7-7-------|
|-10--10--10-10--10-10-10-10-10-----5-8-8-8-8-5-8-5-|
|---------------------------------------------------|
|---------------------------------------------------|
|---------------------------------------------------|
|---------------------------------------------------|

|-10-10--10-10--10-10-10-------7-7--7-7--7-----|
|-10-10--10-10--10-10-10-----5-8-8--8-8--8-7---|
|--------------------------------------------7-|
|----------------------------------------------|
|----------------------------------------------|
|----------------------------------------------|

|------7-7--7-5----------7-7--7-5-------------7-7--7-5---|
|-8-8-----------7----8-8----------8----8--8-8----------7-|
|--------------------------------------------------------|
|--------------------------------------------------------|
|--------------------------------------------------------|
|--------------------------------------------------------|

|------7-7--5-5--5------|
|-8-8--------------7-7--|
|-----------------------|
|-----------------------|
|-----------------------|
|-----------------------|
   every bo dy             lovesmy ba by
|-10--10-10-10--------------10--10-10-10------------|
|-10--10-10-10--------------10--10-10-10------------|
|-11--11-11-11--9-12p9-12---11--11-11-11--9-12p9-12-|
|---------------------------------------------------|
|---------------------------------------------------|
|---------------------------------------------------|

   every bo dy             lovesmy ba by
|-12--12-12-12--------------12--12-12-12------------|
|-12--12-12-12--------------12--12-12-12------------|
|---------------9-12p9-12-----------------9-12p9-12-|
|---------------------------------------------------|
|---------------------------------------------------|
|---------------------------------------------------|

here's the part where Jim says "She get!"
|-12-10---12-12-----10-10-|-12-10---12-12-----10-10-|
|----------------12-------|----------------12-------|
|-------------------------|-------------------------|
|-------------------------|-------------------------|
|-------------------------|-------------------------|
|-------------------------|-------------------------|


Play the same verse format for the next one


I found an island in your arms

A country in your eyes

Arms are changin'

Eyes are lying

Break on through to the other side

Break on through to the other side

Break on through to the other side

(01:53)
|-15-15--15-15--15-15-15-15---15-15--15-15----15-15-15-15-|
|-15-15--15-15--15-15-15-15---15-15--15-15----15-15-15-15-|
|-16-16--16-16--16-16-16-16---16-16--16-16----16-16-16-16-|
|------------------------------------------17-------------|
|---------------------------------------------------------|
|---------------------------------------------------------|


Made the scene from week to week Day to day, hour to hour
|-15-15--15-15--15-15-15-15---15-15--15-15----15-15-15-15-|
|-15-15--15-15--15-15-15-15---15-15--15-15----15-15-15-15-|
|-16-16--16-16--16-16-16-16---16-16--16-16----16-16-16-16-|
|------------------------------------------17-------------|
|---------------------------------------------------------|
|---------------------------------------------------------|

(play with riff 1)

The Gate is strait, Deep and wide

Break on through to the other side

Break on through to the other side

Break on through, break on through, (repeat )

 

 Yeah yeah yeah yeah yeah yeah yeah yeah yeah
|---------------------------------------------|
|---------------------------------------------|
|-7b9--7b9--7b9--7b9--7b9--7b9--7b9--7b9--7b9-|
|---------------------------------------------|
|---------------------------------------------|
|---------------------------------------------|
Tap to rate this tab
# A B C D E F G H I J K L M N O P Q R S T U V W X Y Z