Song name
# A B C D E F G H I J K L M N O P Q R S T U V W X Y Z

Doors - Roadhouse Blues tab

----------------------------------------------------------------------------
			     ROADHOUSE BLUES - The Doors
----------------------------------------------------------------------------

Tabbed by: MIKES

Email: Mikesisawsome@hotmail.com

Tuning: Standard tuning - EADGBe

e||-------------------------------------------------------------------------|
B||-------------------------------------------------------------------------|
G||-------------------------------------------------------------------------|
D||-------------------------------------------0h1h2-------------------0h1h2-|
A||------------------0h1h2--------------------------------------------------|
E||0--0--0--0--0--0---------0--0--0--0--0--0--------0--0--0--0--0--0--------|

------------------------------------------||
------------------------------------------|| repeat this throughout verse
-------------------------0----------------||
------------------0h1h2-----2--2--0-----0-||
------------------------------------0h2---||
0--0--0--0--0--0--------------------------||

e|-------0-0--0--------|  play the chords with upstrokes
B|-------3-3--3--------|
G|-------1-1--1--------|
D|-------2-2--2-----0--|
A|-------2-2--2-0h2----|
E|-0--0--0-0--0--------|

e|---------------------|
B|---------------------|   repeat
G|---------------------|
D|-2-2--4-4--2-2-------|
A|-0-0--0-0--0-0--3h4--|
E|---------------------|

      3      3      3      3
    |---|  |---|  |---|  |---------------------------------------------------|
e|---------------------------------------------------------------------------|
B|---------------------------------------------------------------------------|
G|--4-4-4--4-4-4--4-4-4--4-4-4--3-3-3--4-------------------------------------|
D|--4-4-4--4-4-4--4-4-4--4-4-4--3-3-3--4-------------------------------------|
A|--2-2-2--2-2-2--2-2-2--2-2-2--5-5-5--2-------------------------------------|
E|---------------------------------------------------------------------------|

for the solo, try to use lots of triplets

and just do something like this:

e|-/12-12---12-12----12-12-----12-12-----12-12-----12-12----12-12----12-12-|
B|-/12---12-------12-------12---------12--------12-------12-------12-------|
G|-------------------------------------------------------------------------|
D|-------------------------------------------------------------------------|
A|-------------------------------------------------------------------------|
E|-------------------------------------------------------------------------|

e|----------12---------12----------12----------12----------12----------12--|
B|-12----12----12----12----12----12----12----12----12----12----12---12-----|
G|-14b16-------14b16-------14b16-------14b16-------14b16-------14b16-------|
D|-------------------------------------------------------------------------|
A|-------------------------------------------------------------------------|
E|-------------------------------------------------------------------------|

and just improvise the rest in the pentatonic scale

which is:

e|--------------------------------------12-15----------|
B|-------------------------------12-15-----------------|
G|------------------------12-14------------------------|
D|-----------------12-14-------------------------------|
A|----------12-14--------------------------------------|
E|--12-15----------------------------------------------|


| /  slide up
| \  slide down
| h  hammer-on
| p  pull-off
| ~  vibrato
| +  harmonic
| x  Mute note
| b  bend note whole step
============================================================================
Tap to rate this tab
 
# A B C D E F G H I J K L M N O P Q R S T U V W X Y Z