Song name
# A B C D E F G H I J K L M N O P Q R S T U V W X Y Z

Doors - Spanish Caravan tab

i wanted to play this song but couldn't find a tab with the right sounding intro so i
tabbed my own. robby krieger(the guitarist for the doors) played flamenco so i highly
doubt that he strumed the chords rather than finger picked
(also known as arpeggio) but you do have to do this really fast and if you dont know
how to let me explain, there are two ways
1) the high "e" string is played by only the ring finger
the "B" string is played by only the middle finger
the "G" string is played by only the index finger
and the thumb plays the low "E" string, the "A" string and the "D" string

OR

2) the pinky plays the high "E" string
the ring finger plays the "B" string
the middle finger plays the "G" string
the index finger plays the "D" string
and the thumb plays the "A" and the low "E" strings

if you arent used to using your pinky you should use the first style. but
any way here we go(oh and standard tunings)


e|-----0----0----0---------0-0----0------0----0------0-------3-----2-----|
B|----4-4----4----4---4---5---5----5------5----5----5-5-----5-5---5-5----|
G|---4---4----4----4-4---5-----5----5------5-------0---0---0---0-0---0---|
D|--4-----4----2----4---5-------5----5------5---5-5-------5-----5-----5--|
A|2-------------------------------------3---------4----------------------|
E|-----------------------------------------------------------------------|


e|---0-----0------0------0-------0-----0------0------0-------0------0----|
B|--5-5---5-5----5-5----5-5-----4-4---4-4----4-4----4-4-----4-4----4-4---|
G|-0---0-0---0--0---0--0---0---0---0-0---0--0---0--0---0---0---0--0---0--|
D|----------------------------4-----4-------------4----------------------|
A|------4------3------3------2-------------3-------------2-------0-------|
E|-----------------------------------------------------------------------|


e|----0------0----0------------------------------------------------------|
B|---4-4----4-4---5-------3-2-1-1--------0-------------------------------|
G|--0---0--0---0--0------------------------------------------------------|
D|----------------5-2-1-0---------------9--------------------------------|
A|----------------0-----------3------------------------------------------|
E|-3------2------------------------2/7-----------------------------------|

if you want the rest of the song you should check the other spanish caravan
guitar tab the rest is pretty accurate.
Tap to rate this tab
# A B C D E F G H I J K L M N O P Q R S T U V W X Y Z