Song name
# A B C D E F G H I J K L M N O P Q R S T U V W X Y Z

Doors - Wild Child tab

Help us improve GuitareTab! Take a short survey!
Wild Child
The Doors


I saw that there wasn't a wild child tab so I tabed it, it isn't much but it will get you through the song.

open G tuning- D G D G B D (low to high)



Main rift and intro


|-----------------------------------|
|-----------------------------------|
|-----------------------------------|
|-----------------------------------|
|------------3----------------------|
|-5----5--------5-5-5-5-----3-----0-|


Main Slide Rift

|--------------------------------------------------------------------------|
|--------14-------14-------14--------12-------12-----12--------------------|
|-----14-------14-------14--------12-------12------12------5\3--5\3--5\3---|
|--14-------14-------14--------12-------12-------12-----------5----5----5--|
|--------------------------------------------------------------------------|
|--------------------------------------------------------------------------|

Related for Wild Child tab