Song name
# A B C D E F G H I J K L M N O P Q R S T U V W X Y Z

Doors - Severed Garden tab

Artist: The Doors
Album:  Various Songs/ The Doors Soundtrack
Song:   The Severed Garden

================================================================

/   - Slide

================================================================

Part of the Song were the Organ's Solo suppose to be, if you put a woman tone  to it, it 
sound as it is in the Original, so this your Guitar Solo ;), enjoy.

e|---------------------------------------------------------------------------|
B|---------------------------------------------------------------------------|
G|---------------------------------------------------------------------------|
D|---------------------------------------------------------------------------|
A|-1/3----------------------------------------------3---------------------3--|
E|---------3---5----6-------------------5----6------------------5----6-------|


e|---------------------------------------------------------------------------|
B|---------------------------------------------------------------------------|
G|---------------------------------------------------------------------------|
D|---------------------------------------------------------------------------|
A|---------------------------------------------------------------------------|
E|--------3-----5-----6------------2-----3---5---------------3--2---3--------|


e|-----17----------------------------------------------------------------|
B|--------------17---15---------------13-------15---17--- 13-------------|
G|------------------------17--15--15-----15--------------------15---14---|
D|-----------------------------------------------------------------------|
A|-----------------------------------------------------------------------|
E|-----------------------------------------------------------------------|

e|---------------------------------------------------------------------------|
B|---------------------------------------------------------------------------|
G|---------------------------------------------------------------------------|
D|---------------------------------------------------------------------------|
A|--------------3------------------------------------------------------------|
E|----5----6-----------------3----5---6-----------2---3----5--------3--2---3-|


e|---10---------8----------------------------------------11-----------10---8---|
B|------------------11---10-------8-------7-8-7--------------------------------|
G|-----------------------------------------------------------------------------|
D|-----------------------------------------------------------------------------|
A|-----------------------------------------------------------------------------|
E|-----------------------------------------------------------------------------|

e|------------------------------------------15-------13---15-----11----13------|
B|--11----10-------10-------8-10-8---------------------------------------------|
G|-----------------------------------------------------------------------------|
D|-----------------------------------------------------------------------------|
A|-----------------------------------------------------------------------------|
E|-----------------------------------------------------------------------------|

e|--10---11--------13------11--13-----10--11-----8----10---10/11-------10-11---|
B|-----------------------------------------------------------------------------|
G|-----------------------------------------------------------------------------|
D|-----------------------------------------------------------------------------|
A|-----------------------------------------------------------------------------|
E|-----------------------------------------------------------------------------|

e|-8--10------6---8------------------------------10---------11-----------------|
B|----------------------10--11----13---11--10----------------------------------|
G|-----------------------------------------------------------------------------|
D|-----------------------------------------------------------------------------|
A|-----------------------------------------------------------------------------|
E|-----------------------------------------------------------------------------|

e|-10\11/10/11\10/11\10/11\10/11------15---17--18---17--15--14--15---13--------|
B|-----------------------------------------------------------------------------|
G|-----------------------------------------------------------------------------|
D|-----------------------------------------------------------------------------|
A|-----------------------------------------------------------------------------|
E|-----------------------------------------------------------------------------|

e|--13---15----17----15---13----12------------------15--------------------15---|
B|-----------------------------------13----16---------15-------12-----15-------|
G|-----------------------------------------------------------------------------|
D|-----------------------------------------------------------------------------|
A|-----------------------------------------------------------------------------|
E|-----------------------------------------------------------------------------|

e|-----------------------------------------------------------------------------|
B|--13-----13---15--16---15---13----11----11---13---15---13---11---10----------|
G|-----------------------------------------------------------------------------|
D|-----------------------------------------------------------------------------|
A|-----------------------------------------------------------------------------|
E|-----------------------------------------------------------------------------|

e|----------------------------------------------------------------------------|
B|--10--11----13---------11----------10------------8--------------------------|
G|----------------------------------------------------------------------------|
D|----------------------------------------------------------------------------|
A|----------------------------------------------------------------------------|
E|----------------------------------------------------------------------------|
Tap to rate this tab
# A B C D E F G H I J K L M N O P Q R S T U V W X Y Z