Song name
# A B C D E F G H I J K L M N O P Q R S T U V W X Y Z

Doors - Black Polished Chrome tab

The Doors - Black Polished Chrome
An American Prayer


e|------------------------------------------------|
b|-----------2br--------------------------------0-|
g|---------2-2br-0-2-0--------------------------2-| x2
d|-----2-5---------------------------------1-2--1-|
a|-2-5-----------------75--2-5-2-5-2-5--2------2-|
e|------------------------------------------------|



e|------5-5--7b8r7p5---7---5----------------------|
b|-5-/7--------------7---7---7-5------------------|
g|-------------------------------7-5b-6-----------|
d|--------------------------------------7-5-------|
a|------------------------------------------------|
e|------------------------------------------------|



e|------5-5--7b9-7b8r7p5---7---5--------7-----7-----8-8-8-7-|
b|-5-/7------------------7---7------7-----7-----7---8-8-8-7-|
g|-------------------------------/8---8-----8-----8---------|
d|----------------------------------------------------------|
a|----------------------------------------------------------|
e|----------------------------------------------------------|



e|------------------------------------------------|
b|-----------2br--------------------------------0-|
g|---------2-2br-0-2-0--------------------------2-| x2
d|-----2-5---------------------------------1-2--1-|
a|-2-5-----------------75--2-5-2-5-2-5--2-------2-|
e|------------------------------------------------|


e|------5-5--7b8r7p5---7---5----------------------|
b|-5-/7--------------7---7---7-5------------------|
g|-------------------------------7-5b-6-----------|
d|--------------------------------------7-5-------|
a|------------------------------------------------|
e|------------------------------------------------|


e|------5-5--7b9-12b14-12-11-10------------------7-----7-----8-8-8-7-|
b|-5-/7-------------------------12b14r12-----7-----7-----7---8-8-8-7-|
g|-----------------------------------------/8--8-----8-----8---------|
d|-------------------------------------------------------------------|
a|-------------------------------------------------------------------|
e|-------------------------------------------------------------------|


e|----------------------------------------------7-|
b|-----------2br--------------------------------8-|
g|---------2-2br-0-2-0--------------------------7-|
d|-----2-5---------------------------------1-2--9-|
a|-2-5-----------------75--2-5-2-5-2-5--2-------7-|
e|----------------------------------------------0-|
Tap to rate this tab
 
# A B C D E F G H I J K L M N O P Q R S T U V W X Y Z