Song name
# A B C D E F G H I J K L M N O P Q R S T U V W X Y Z

Doors - I Will Never Be Untrue tab

   Em/E     Em/E    Em/E    Em/E    Em/E    Em/E
---------------------------------------------------|--
---------------------------------------------------|--
----0h1~----0h1~----0h1~----0h1~----0h1~----0h1~---|--
---2---2---2---2---2---2---2---2---2---2---2---2---|--
--2-----2-2-----2-2-----2-2-----2-2-----2-2-----2--|--
-0-------0-------0-------0-------0-------0---------|--
                               

   B               A      C         Em/E     Em/E  
---------------------------------------------------|--
-------------------------------8-------------------|--
------8~----8~-7-6-----6------9-9----0h1~----0h1~--|--
-----9-9---9------7---7-7---10------2---2---2---2--|--
----9---9-9--------7-7---7-10------2-----2-2-----2-|--
-1/7-----7----------5-----8-------0-------0--------|--


   B           A       Em/E       A
---------------------------------------------------|--
------------------------------------5-------8------|--
------8-----8-----6-----0h1~-------6-6-----9-9-----|--
-----9-9---9-9---7-7---2----------7---7---10-------|--
----9---9-9---9-7---7-2----------7-----7-10--------|--
-1/7-----7-----5-----0------2-3/5-------8----------|--



Tap to rate this tab
# A B C D E F G H I J K L M N O P Q R S T U V W X Y Z