Guitaretab - guitar tabs
Song name
# A B C D E F G H I J K L M N O P Q R S T U V W X Y Z

Doosu - Whos It Gonna Be tab

Gtr 1 part 1
E-----------------------------------------------------------------------------------|
B-----------------------------------------------------------------------------------|
G-----------------------------------------------------------------------------------|
D----------------------------------------------------------------------------2h3- 0-|
A-----------0-0-0-3-3-3-5-5-5------------------0-0-0-3-3-3-5-5-5----------------0---|
D---2-2-2----------------------3-3-3-2-2-2-----------------------3-3-3-2-2-2----0---|

Gtr 2 part 1
E----------------5------------------|
B-----3---3---3-----3---3-----------|
G---5---5---5-----5---5---5---------|
D-----------------------------------|
A-----------------------------------|
D-----------------------------------|

E---------0-------------|
B-----------------------|
G---2-2-2----2--2-------|
D--5-5-5----5--5--5-----|
A-----------------------|
D-----------------------|

E----------------------------|
B----------------------------|
G------------2---------------|
D---0--0---0----0--0---0-0---|
A--3--3--3-----3--3--3---0---|
D------------------------0---|
[ Tab from: http://www.guitaretab.com/d/doosu/89163.html ]
Guitar 1 part 2
E-------------------------------------------------------------------------------|
B-------------------------------------------------------------------------------|
G-------------------------------------------------------------------------------|
D-444444444444444444444444444444444444444444444444444444444444444-0-------------|
A-----------------------------------------------------------------------0-------|
D-----------------------------------------------------------------------0-------|

Guitar 2 part 2
E--------------------------------------------------------------------------|
B--------------------------------------------------------------------------|
G---------------------------------------------7----9-----16-------------0--|
D---------------------------------------------X----X------X-------------0--|
A---------------------------------------------5----7-----14-------------0--|
D--------------------------------------------------------------------------|

Both guitars part 3
E-------------|
B-------------|
G-------------|
D--4-3-0--2-3-|
A--2-3-0--2-3-|
D----3-0--2-3-|

Guitar 1 part 4; you do this 2 times before guitar 2 comes in.
E-----------------------------|
B-----------------------------|
G-----------------------------|
D-----------------------------|
A-0-5-8-0-7-10-9-12-----------|
D--------------------7-7-7--7-|

Guitar 2 part 4
E-----------------------------|
B-----------------------------|
G-----------------------------|
D-0-5-8--0-7-10-9-12----------|
A-----------------------------|
D--------------------7-7-7--7-|

Both guitars part 5
E-------0-----|
B-------------|
G-------------|
D-4-3-0--2-3--|
A-2-3-0--2-3--|
D-------------|
Related for Whos It Gonna Be tab
×
Whos It Gonna Be