Song name
# A B C D E F G H I J K L M N O P Q R S T U V W X Y Z

Dope - Slipping Away tab

#----------------------------------PLEASE NOTE---------------------------------#
#This file is the author's own work and represents their interpretation of the #
#song. You may only use this file for private study, scholarship, or research. #
#------------------------------------------------------------------------------##


Gtr I (C G C F A D) - 'Clean'
Gtr II (C G C F A D) - 'Distorted'
Gtr III (C G C F A D) - 'Distorted'

 Intro
  Q=123
 4/4
  Gtr I
  Q  E E.. E E..  Q   E  E..  E  E..  Q   E  E..  E  E.. Q  E E.. E E..
|-----------------------------------------------------------------------|
|-----------------------------------------------------------------------|
|-----------------------------------------------------------------------|
|-----------------------------------------------------------------------|
|-7--7-7---7-7/--10--10-10---10-10/--12--12-12---12-12\--8--8-8---8-8---|
|-7--7-7---7-7/--10--10-10---10-10/--12--12-12---12-12\--8--8-8---8-8---|


   Verse
    Q  E E.. E E..  Q   E  E..  E  E..  Q   E  E..  E  E.. Q  E E.. E E..
||-------------------------------------------------------------------------||
||o-----------------------------------------------------------------------o||
||-------------------------------------------------------------------------||
||-------------------------------------------------------------------------||
||o-7--7-7---7-7/--10--10-10---10-10/--12--12-12---12-12\--8--8-8---8-8---o||
||--7--7-7---7-7/--10--10-10---10-10/--12--12-12---12-12\--8--8-8---8-8----||


   Chorus
    Gtr II
    Q  +S. S +H      Q   +S.  S  +H     Q  +S. S +H     Q  +S. S +Q   E. E
||--------------------------------------------------------------------------||
||o------------------------------------------------------------------------o||
||--------------------------------------------------------------------------||
||--7--(7)-7-(7)----11--(11)-11-(11)----5--(5)-5-(5)----3--(3)-3-(3)--3/-5--||
||o-7--(7)-7-(7)----11--(11)-11-(11)----5--(5)-5-(5)----3--(3)-3-(3)--3/-5-o||
||--7--(7)-7-(7)----11--(11)-11-(11)----5--(5)-5-(5)----3--(3)-3-(3)--3/-5--||


 Verse
  Gtr II
  Q    E E.. E E..      Q     E  E..  E  E..       Q     E  E..  E  E..      Q    E E.. E E..
|-------------------------------------------------------------------------------------------------|
|-------------------------------------------------------------------------------------------------|
|-------------------------------------------------------------------------------------------------|
|-------------------------------------------------------------------------------------------------|
|-7----7-7---7-7/------10----10-10---10-10/-------12----12-12---12-12\-------8----8-8---8-8-------|
|-7----7-7---7-7/------10----10-10---10-10/-------12----12-12---12-12\-------8----8-8---8-8-------|
|
| Gtr III
| ~~~~~~~~~~~~~~~~~~~~~~~~~~~~~~~~~~~~~~~~~~~~~~~~~~~~~~~~~~~~~~~~~~~~~~~~~~~~~~~~~~~~~~~~~~~~~~~~
| H..              +S   H..                   +S   H..                   +S  H..              +S
|-------------------------------------------------------------------------------------------------|
|-7----------------(7)-10--------------------(10)-12--------------------(12)-8----------------(8)-|
|-------------------------------------------------------------------------------------------------|
|-------------------------------------------------------------------------------------------------|
|-------------------------------------------------------------------------------------------------|
|-7----------------(7)-10--------------------(10)-12--------------------(12)-8----------------(8)-|


  Gtr II
  Q    E E..     E   E..        Q     E  E..        E    E..      Q       E  E..      E    E..     Q        E E..   E     E..
|--------------------------------------------------------------------------------------------------------------------------------------|
|--------------------------------------------------------------------------------------------------------------------------------------|
|--------------------------------------------------------------------------------------------------------------------------------------|
|--------------------------------------------------------------------------------------------------------------------------------------|
|-7----7-7-------7---7/--------10----10-10---------10---10/------12------12-12-------12---12\------8--------8-8-----8-----8------------|
|-7----7-7-------7---7/--------10----10-10---------10---10/------12------12-12-------12---12\------8--------8-8-----8-----8------------|
|
| Gtr III
| ~~~
| W..
|--------------------------------------------------------------------------------------------------------------------------------------|
|--------------------------------------------------------------------------------------------------------------------------------------|
|--------------------------------------------------------------------------------------------------------------------------------------|
|--------------------------------------------------------------------------------------------------------------------------------------|
|-7------------------------------------------------------------------------------------------------------------------------------------|
|-7------------------------------------------------------------------------------------------------------------------------------------|
|
| Gtr III
| Q.     S   S E   E     S S S  S Q.         S S E    E      S S  S S Q.         S S    E      E S S S S Q.       S   S E      E  E  E
|--------------------------------------------------------------------------------------------------------------------------------------|
|--------------------------------------------------------------------------------------------------------------------------------------|
|--------------------------------------------------------------------------------------------------------------------------------------|
|--------------------------------------------------------------------------------------------------------------------------------------|
|--------7---7-7---7-----7-7-7--7------------7-7-7----7------7-7--7-7------------7-7----7------7-7-7-7-7----------7---7-7-----10-10-10-|
|--------7---7-7---7-----7-7-7--7------------7-7-7----7------7-7--7-7------------7-7----7------7-7-7-7-7----------7---7-7-----10-10-10-|


  Gtr II
  Q    E E.. E E..      Q     E  E..  E  E..       Q     E  E..  E  E..      Q    E E.. E E..
|-------------------------------------------------------------------------------------------------|
|-------------------------------------------------------------------------------------------------|
|-------------------------------------------------------------------------------------------------|
|-------------------------------------------------------------------------------------------------|
|-7----7-7---7-7/------10----10-10---10-10/-------12----12-12---12-12\-------8----8-8---8-8-------|
|-7----7-7---7-7/------10----10-10---10-10/-------12----12-12---12-12\-------8----8-8---8-8-------|
|
| Gtr III
| ~~~~~~~~~~~~~~~~~~~~~~~~~~~~~~~~~~~~~~~~~~~~~~~~~~~~~~~~~~~~~~~~~~~~~~~~~~~~~~~~~~~~~~~~~~~~~~~~
| H..              +S   H..                   +S   H..                   +S  H..              +S
|-------------------------------------------------------------------------------------------------|
|-7----------------(7)-10--------------------(10)-12--------------------(12)-8----------------(8)-|
|-------------------------------------------------------------------------------------------------|
|-------------------------------------------------------------------------------------------------|
|-------------------------------------------------------------------------------------------------|
|-7----------------(7)-10--------------------(10)-12--------------------(12)-8----------------(8)-|


  Gtr II
  Q    E E.. E E..      Q     E  E..  E  E..       Q     E  E..  E  E..      H..       S
|----------------------------------------------------------------------------------------|
|----------------------------------------------------------------------------------------|
|----------------------------------------------------------------------------------------|
|----------------------------------------------------------------------------------------|
|-7----7-7---7-7/------10----10-10---10-10/-------12----12-12---12-12\-------------------|
|-7----7-7---7-7/------10----10-10---10-10/-------12----12-12---12-12\-------------------|
|
| Gtr III
| ~~~~~~~~~~~~~~~~~~~~~~~~~~~~~~~~~~~~~~~~~~~~~~~~~~~~~~~~~~~~~~~~~~~~~~~~~~~
| H..              +S   H..                   +S   H..                   +S  H..       S
|----------------------------------------------------------------------------------------|
|-7----------------(7)-10--------------------(10)-12--------------------(12)-------------|
|----------------------------------------------------------------------------------------|
|----------------------------------------------------------------------------------------|
|----------------------------------------------------------------------------------------|
|-7----------------(7)-10--------------------(10)-12--------------------(12)-------------|


   Chorus
    Gtr II
    Q  +S. S +H      Q   +S.  S  +H     Q  +S. S +H     Q  +S. S +Q   E. E
||--------------------------------------------------------------------------||
||o------------------------------------------------------------------------o||
||--------------------------------------------------------------------------||
||--7--(7)-7-(7)----11--(11)-11-(11)----5--(5)-5-(5)----3--(3)-3-(3)--3/-5--||
||o-7--(7)-7-(7)----11--(11)-11-(11)----5--(5)-5-(5)----3--(3)-3-(3)--3/-5-o||
||--7--(7)-7-(7)----11--(11)-11-(11)----5--(5)-5-(5)----3--(3)-3-(3)--3/-5--||


   Bridge
    Gtr III
    Q  +S. S +H     Q  +S. S +H      Q   +S.  S  +H     Q  +S. S +H     Q
||--------------------------------------------------------------------------||
||o------------------------------------------------------------------------o||
||--------------------------------------------------------------------------||
||--7--(7)-7-(7)----3--(3)-3-(3)----11--(11)-11-(11)----5--(5)-5-(5)--------||
||o-7--(7)-7-(7)----3--(3)-3-(3)----11--(11)-11-(11)----5--(5)-5-(5)-------o||
||--7--(7)-7-(7)----3--(3)-3-(3)----11--(11)-11-(11)----5--(5)-5-(5)--------||


   Verse
    Q  E E.. E E..  Q   E  E..  E  E..  Q   E  E..  E  E.. Q  E E.. E E..  3x
||-------------------------------------------------------------------------||
||o-----------------------------------------------------------------------o||
||-------------------------------------------------------------------------||
||-------------------------------------------------------------------------||
||o-7--7-7---7-7/--10--10-10---10-10/--12--12-12---12-12\--8--8-8---8-8---o||
||--7--7-7---7-7/--10--10-10---10-10/--12--12-12---12-12\--8--8-8---8-8----||


   Chorus
    Gtr II
    Q  +S. S +H      Q   +S.  S  +H     Q  +S. S +H     Q  +S. S +Q   E. E
||--------------------------------------------------------------------------||
||o------------------------------------------------------------------------o||
||--------------------------------------------------------------------------||
||--7--(7)-7-(7)----11--(11)-11-(11)----5--(5)-5-(5)----3--(3)-3-(3)--3/-5--||
||o-7--(7)-7-(7)----11--(11)-11-(11)----5--(5)-5-(5)----3--(3)-3-(3)--3/-5-o||
||--7--(7)-7-(7)----11--(11)-11-(11)----5--(5)-5-(5)----3--(3)-3-(3)--3/-5--||


 Outro
  Gtr I
  Q  E E.. E E..  Q   E  E..  E  E..  Q   E  E..  E  E.. Q  E E.. E E..
|-----------------------------------------------------------------------|
|-----------------------------------------------------------------------|
|-----------------------------------------------------------------------|
|-----------------------------------------------------------------------|
|-7--7-7---7-7/--10--10-10---10-10/--12--12-12---12-12\--8--8-8---8-8---|
|-7--7-7---7-7/--10--10-10---10-10/--12--12-12---12-12\--8--8-8---8-8---|


Duration Legend
---------------
W - whole; H - half; Q - quarter; E - 8th; S - 16th; T - 32nd; X - 64th; a - acciaccatura
+ - note tied to previous; . - note dotted; .. - note double dotted
Uncapitalized letters represent notes that are staccato (1/2 duration)
Irregular groupings are notated above the duration line
Duration letters will always appear directly above the note/fret number it represents the
duration for.  Duration letters with no fret number below them represent rests.  Multi-
bar rests are notated in the form Wxn, where n is the number of bars to rest for.  Low
melody durations appear below the staff

Tablature Legend
----------------
 h   - hammer-on
 p   - pull-off
 b   - bend
 pb  - pre-bend
 r   - bend release (if no number after the r, then release immediately)
 /\  - slide into or out of (from/to "nowhere")
 s   - legato slide
 S   - shift slide
  - natural harmonic
[n]  - artificial harmonic
n(n) - tapped harmonic
 ~   - vibrato
 tr  - trill
 T   - tap
 TP  - trem. picking
 PM  - palm muting
\n/  - tremolo bar dip; n = amount to dip
 \n  - tremolo bar down
 n/  - tremolo bar up
/n\  - tremolo bar inverted dip
 =   - hold bend; also acts as connecting device for hammers/pulls
 <>  - volume swell (louder/softer)
 x   - on rhythm slash represents muted slash
 o   - on rhythm slash represents single note slash

Misc Legend
-----------
 |  - bar
||  - double bar
||o - repeat start
o|| - repeat end
*|  - double bar (ending)
 :  - bar (freetime)
 $  - Segno
 &  - Coda
Tempo markers -  = BPM(8/16=s8/s16), where s8 = swing 8ths, s16 = swing 16ths


***************************************************************************************
* Generated using Power Tab Editor by Brad Larsen - http://powertab.guitarnetwork.org *
***************************************************************************************
Tap to rate this tab
# A B C D E F G H I J K L M N O P Q R S T U V W X Y Z