Song name
# A B C D E F G H I J K L M N O P Q R S T U V W X Y Z

Dope - Survive tab

Intro Is Bass

Verse 

|---------------|-----------------|
|---------------|-----------------|
|-------------8-|-----------------|
|---------------|-----------------|
|-------------6-|-----------------|
|-100-0-100-0---|-100-0-100-0-3-0-|

Pre Chorus

|--------------------------|
|--------------------------|
|----------------------8-7-|
|--------------------------|
|----------------------6-5-|
|-0-00-1--0-00-3--0-00-----|

Chorus (Not Lead..Don't Know Lead)

|-----------------------|---------------------|
|-----------------------|---------------------|
|-----888-777-----55----|-----888-777---------|
|-000-888-777-333-55-11-|-000-888-777-333-1-1-|
|-000-666-555-333-33-11-|-000-666-555-333-1-1-|
|-000---------333----11-|-000---------333-1-1-|

Bridge

|----------------------------------------------------------------------|
|----------------------------------------------------------------------|
|----------------------------------------------------------------------|
|----------------------------------------------------------------6-5-3-|
|----------------------------------------------------------------6-5-3-|
|-1h3-1200-0h3p0-1h3-1200--0-3-0-6--1h3-1200--0h3p0--1h3-1200--0-6-5-3-|
     (1&2 Not 12)    (1&2)             (1&2)            (1&2)

And Don't Know The Solo..So..Improvise?
Tap to rate this tab
 
# A B C D E F G H I J K L M N O P Q R S T U V W X Y Z